Home » R » Roy Orbison »

Roy Orbison - You Got It Bass

Artists:  A B C D E F G H I J K L M N O P Q R S T U V W X Y Z # 

You Got It Bass

(ver. 2) Click to play this song!
Roy Orbison

Intro:
G|----------------------------------|
D|----------------------------------|
A|---------------5----------------5-|
E|-5---5-5---3-------5---5-5---3----|

Verse 1:
G|------------------------------------------------------------------------|
D|------------------------------------------------------------------------|
A|--------------5----------------5-----------------5----------------------|
E|-5---5-5---3------5---5-5---3-------5---5-5---3-------0---0-0---3---3-3-|

Pre-Chorus:
G|---------------------------------------------------------|
D|---------------------------------------------------------|
A|--------------------4---4-4---7---7-7--------------------|
E|-5---5-5---2---2-2---------------------5---5-5---2---2-2-|

G|-------------------|
D|-------------------|
A|-4---4-4---7---7-7-|
E|-------------------|

Chorus:
G|-------------------------------------------------------------|
D|-----------4--4----------------4--4----------------4--4------|
A|------4--4------5--5------4--4------5--5------4--4------5--5-|
E|-5--5----------------5--5----------------5--5----------------|

Chorus Part 2: (Follow Lead Guitar Run Down)
G|--------------------------------------------------|
D|---------------2-2--0-0---------------------------|
A|-7--7--7--7--7----------4-4--2-2--0-0-------------|
E|--------------------------------------4-4--2-2--0-|

Verse 2:
G|------------------------------------------------------------------------|
D|------------------------------------------------------------------------|
A|--------------5----------------5-----------------5----------------------|
E|-5---5-5---3------5---5-5---3-------5---5-5---3-------0---0-0---3---3-3-|

Pre-Chorus:
G|---------------------------------------------------------|
D|---------------------------------------------------------|
A|--------------------4---4-4---7---7-7--------------------|
E|-5---5-5---2---2-2---------------------5---5-5---2---2-2-|

G|-------------------|
D|-------------------|
A|-4---4-4---7---7-7-|
E|-------------------|

Chorus:
G|-------------------------------------------------------------|
D|-----------4--4----------------4--4----------------4--4------|
A|------4--4------5--5------4--4------5--5------4--4------5--5-|
E|-5--5----------------5--5----------------5--5----------------|

Chorus Part 2: (Follow Lead Guitar Run Down)
G|--------------------------------------------------|
D|---------------2-2--0-0---------------------------|
A|-7--7--7--7--7----------4-4--2-2--0-0-------------|
E|--------------------------------------4-4--2-2--0-|

Interlude:                   (Play This Bit x3)
G|------------------------------------|
D|-2-2--0-0---------------------------|
A|----------4-4--2-2--0-0-------------|
E|------------------------4-4--2-2--0-|

G|-------------------------------------------------------------|
D|-----------4--4----------------4--4----------------4--4------|
A|------4--4------5--5------4--4------5--5------4--4------5--5-|
E|-5--5----------------5--5----------------5--5----------------|

G|--------------------------------------------------|
D|---------------2-2--0-0---------------------------|
A|-7--7--7--7--7----------4-4--2-2--0-0-------------|
E|--------------------------------------4-4--2-2--0-|

Verse 3:
G|-------------------------------------------------------------|
D|-------------------------------------------------------------|
A|-----------------1-2--4---4-4---7---7-7------------------1-2-|
E|-5---5-5---2---2-------------------------5---5-5---2---2-----|

G|----------------------------|
D|----------------------------|
A|-4---4-4---7--7--7--7--7--7-|
E|----------------------------|

Chorus 2:
G|-------------------------------------------------------------|
D|-----------4--4----------------4--4----------------4--4------|
A|------4--4------5--5------4--4------5--5------4--4------5--5-|
E|-5--5----------------5--5----------------5--5----------------|

G|--------------------------------------------------|
D|---------------2-2--0-0---------------------------|
A|-7--7--7--7--7----------4-4--2-2--0-0-------------|
E|--------------------------------------4-4--2-2--0-|

Outro:
G|-------------------------------------------------------------|
D|-----------4--4----------------4--4----------------4--4------|
A|------4--4------5--5------4--4------5--5------4--4------5--5-|
E|-5--5----------------5--5----------------5--5----------------|

G|--------------------------------------------------|
D|---------------2-2--0-0---------------------------|
A|-7--7--7--7--7----------4-4--2-2--0-0-------------|
E|--------------------------------------4-4--2-2--0-|

G|------------------------------------|
D|-2-2--0-0---------------------------|
A|----------4-4--2-2--0-0-------------|
E|------------------------4-4--2-2--0-|

                                          (End)
G|------------------------------------------|
D|-2-2--0-0---------------------------------|
A|----------4-4--2-2--0-0-------------------|
E|------------------------4-4--2-2--0---5-5-|

            
Submit corrections

↑ Back to top | Tablatures and chords for acoustic guitar and electric guitar, ukulele, drums are parodies/interpretations of the original songs. You may use it for private study, scholarship, research or language learning purposes only