Home » R » Roy Orbison »

Roy Orbison - Claudette Tabs

Artists:  A B C D E F G H I J K L M N O P Q R S T U V W X Y Z # 

Claudette Tabs

(ver. 1) Click to play this song!
Roy Orbison
 [Intro]
  Q=134
   E5    D5E5    D5E5     N.C.       E5    D5E5    D5E5
  4/4
  Gtr I (Ac. Gtr.)
   E S S E E S S E E  E   W          E S S E E S S E E  E
e|----------------------|----------|----------------------|
B|-5-5-5-3-5-5-5-3-5\---|----------|-5-5-5-3-5-5-5-3-5\---|
G|-4-4-4-2-4-4-4-2-4\---|----------|-4-4-4-2-4-4-4-2-4\---|
D|-------0-------0------|----------|-------0-------0------|
A|----------------------|----------|----------------------|
E|----------------------|----------|----------------------|


   N.C.                   E5    D5E5    D5E5
   W                      E S S E E S S E E  E
e|----------------------|----------------------|
B|----------------------|-5-5-5-3-5-5-5-3-5\---|
G|----------------------|-4-4-4-2-4-4-4-2-4\---|
D|----------------------|-------0-------0------|
A|----------------------|----------------------|
E|----------------------|----------------------|
 |
 | Gtr II (El. Gtr.)
 | PM-------------------------------------------
 | E S S E E S S E E  E   W
e|----------------------|----------------------|
B|----------------------|----------------------|
G|----------------------|----------------------|
D|----------------------|----------------------|
A|-7-7-7-5-7-7-7-5-7\---|----------------------|
E|----------------------|----------------------|


   G     A       B    E
   Q.    E +Q    Q    E E Q   E E E E
e|-3-----0-(0)------|-0-0-0---0-0-0-0--|
B|-0-----2-(2)---4--|-0-0-0---0-0-0-0--|
G|-0-----2-(2)---4--|-1-1-1---1-1-1-1--|
D|-0-----2-(2)---4--|-2-2-2---2-2-2-2--|
A|-2-----0-(0)---2--|-2-2-2---2-2-2-2--|
E|-3----------------|-0-0-0---0-0-0-0--|
 |
 |----------------------------------|
 | Q   E E +E  E Q    E E E E E E E E
e|------------------|------------------|
B|------------------|------------------|
G|------------------|------------------|
D|------------------|---------------2--|
A|-5---5-7-(7)-7-9--|---------2-2-4----|
E|-3---3-5-(5)-5-7--|-0-0-4-4----------|


                     [1st - 3rd Verses]
                     Segno $
                       E
   E E Q   E E E E     E E Q   E E E E   E E Q   E E E E   E E Q   E E E E
e|-0-0-0---0-0-0-0-||--0-0-0---0-0-0-0-|-0-0-0---0-0-0-0-|-0-0-0---0-0-0-0--|
B|-0-0-0---0-0-0-0-||o-0-0-0---0-0-0-0-|-0-0-0---0-0-0-0-|-0-0-0---0-0-0-0--|
G|-1-1-1---1-1-1-1-||--1-1-1---1-1-1-1-|-1-1-1---1-1-1-1-|-1-1-1---1-1-1-1--|
D|-2-2-2---2-2-2-2-||--2-2-2---2-2-2-2-|-2-2-2---2-2-2-2-|-2-2-2---2-2-2-2--|
A|-2-2-2---2-2-2-2-||o-2-2-2---2-2-2-2-|-2-2-2---2-2-2-2-|-2-2-2---2-2-2-2--|
E|-0-0-0---0-0-0-0-||--0-0-0---0-0-0-0-|-0-0-0---0-0-0-0-|-0-0-0---0-0-0-0--|
 |
 | PM--------------------------------------------------------------------|
 | E E E E E E E E     E E E E E E E E   E E E E E E E E   E E E E E E E E
e|-----------------||------------------|-----------------|------------------|
B|-----------------||o-----------------|-----------------|------------------|
G|-----------------||------------------|-----------------|------------------|
D|---------------2-||----------------2-|---------------2-|---------------2--|
A|---------2-2-4---||o---------2-2-4---|---------2-2-4---|---------2-2-4----|
E|-0-0-4-4---------||--0-0-4-4---------|-0-0-4-4---------|-0-0-4-4----------|


                     A                                   B
   E E Q   E E E E   E E Q   E E E E   E E Q   E E E E   E E Q  H
e|-0-0-0---0-0-0-0-|-0-0-0---0-0-0-0-|-0-0-0---0-0-0-0-|-------------|
B|-0-0-0---0-0-0-0-|-2-2-2---2-2-2-2-|-2-2-2---2-2-2-2-|-4-----------|
G|-1-1-1---1-1-1-1-|-2-2-2---2-2-2-2-|-2-2-2---2-2-2-2-|-4-----------|
D|-2-2-2---2-2-2-2-|-2-2-2---2-2-2-2-|-2-2-2---2-2-2-2-|-4-----------|
A|-2-2-2---2-2-2-2-|-0-0-0---0-0-0-0-|-0-0-0---0-0-0-0-|-2-----------|
E|-0-0-0---0-0-0-0-|-----------------|-----------------|-------------|
 |
 | PM------------------------------------------------|
 | E E E E E E E E   E E E E E E E E   E E E E E E E E   E E Q  H
e|-----------------|-----------------|-----------------|-------------|
B|-----------------|-----------------|-----------------|-------------|
G|-----------------|---------------2-|-----------------|-------------|
D|---------------2-|---------2-2-4---|---------2-2-4-2-|-4-----------|
A|---------2-2-4---|-0-0-4-4---------|-0-0-4-4---------|-2-----------|
E|-0-0-4-4---------|-----------------|-----------------|-------------|


             [Chorus]
   N.C.        E                    A                    E
   W           Q   E  E +E  E E E   Q   E  E +E  E E E   Q   E  E +E  E E E
e|----------||-0---0--0-(0)-0-0-0-|-0---0--0-(0)-0-0-0-|-0---0--0-(0)-0-0-0--|
B|----------||-0---0--0-(0)-0-0-0-|-2---2--2-(2)-2-2-2-|-0---0--0-(0)-0-0-0--|
G|----------||-1---1--1-(1)-1-1-1-|-2---2--2-(2)-2-2-2-|-1---1--1-(1)-1-1-1--|
D|----------||-2---2--2-(2)-2-2-2-|-2---2--2-(2)-2-2-2-|-2---2--2-(2)-2-2-2--|
A|----------||-2---2--2-(2)-2-2-2-|-0---0--0-(0)-0-0-0-|-2---2--2-(2)-2-2-2--|
E|----------||-0---0--0-(0)-0-0-0-|--------------------|-0---0--0-(0)-0-0-0--|
 |
 | W           Q.     E +Q    Q     Q.     E +Q    Q     Q.     E +Q    Q
e|----------||--------------------|--------------------|---------------------|
B|----------||--------------------|--------------------|---------------------|
G|----------||--------------------|--------------------|---------------------|
D|----------||--------------------|----------------2---|---------------------|
A|----------||----------------2---|-0-----/4-(4)-------|----------------2----|
E|----------||-0-----/4-(4)-------|--------------------|-0-----/4-(4)--------|


   A                    E
   Q   E  E +E  E E E   Q   E  E +E  E E E
e|-0---0--0-(0)-0-0-0-|-0---0--0-(0)-0-0-0-|
B|-2---2--2-(2)-2-2-2-|-0---0--0-(0)-0-0-0-|
G|-2---2--2-(2)-2-2-2-|-1---1--1-(1)-1-1-1-|
D|-2---2--2-(2)-2-2-2-|-2---2--2-(2)-2-2-2-|
A|-0---0--0-(0)-0-0-0-|-2---2--2-(2)-2-2-2-|
E|--------------------|-0---0--0-(0)-0-0-0-|
 |
 | Q.     E +Q    Q     Q.     E +Q    Q
e|--------------------|--------------------|
B|--------------------|--------------------|
G|--------------------|--------------------|
D|----------------2---|--------------------|
A|-0-----/4-(4)-------|----------------2---|
E|--------------------|-0-----/4-(4)-------|


   B                    A
   Q   E  E +E  E E E   Q   E  E +E  E E E
e|--------------------|-0---0--0-(0)-0-0-0--|
B|-4---4--4-(4)-4-4-4-|-2---2--2-(2)-2-2-2--|
G|-4---4--4-(4)-4-4-4-|-2---2--2-(2)-2-2-2--|
D|-4---4--4-(4)-4-4-4-|-2---2--2-(2)-2-2-2--|
A|-2---2--2-(2)-2-2-2-|-0---0--0-(0)-0-0-0--|
E|--------------------|---------------------|
 |
 | Q.     E +Q    Q     Q.     E +Q    Q
e|--------------------|---------------------|
B|--------------------|---------------------|
G|--------------------|---------------------|
D|----------------4---|----------------2----|
A|-2-----/6-(6)-------|-0-----/4-(4)--------|
E|--------------------|---------------------|


   B                    A
   Q   E  E +E  E E E   Q   E  E +E  E E E
e|--------------------|-0---0--0-(0)-0-0-0-|
B|-4---4--4-(4)-4-4-4-|-2---2--2-(2)-2-2-2-|
G|-4---4--4-(4)-4-4-4-|-2---2--2-(2)-2-2-2-|
D|-4---4--4-(4)-4-4-4-|-2---2--2-(2)-2-2-2-|
A|-2---2--2-(2)-2-2-2-|-0---0--0-(0)-0-0-0-|
E|--------------------|--------------------|
 |
 | Q.     E +Q    Q     Q.     E +Q    Q
e|--------------------|--------------------|
B|--------------------|--------------------|
G|--------------------|--------------------|
D|----------------4---|----------------2---|
A|-2-----/6-(6)-------|-0-----/4-(4)-------|
E|--------------------|--------------------|


   E                  A
   Q  E E +E  E E E   Q   E  E +E  E E E
e|-0--0-0-(0)-0-0-0-|-0---0--0-(0)-0-0-0--|
B|-0--0-0-(0)-0-0-0-|-2---2--2-(2)-2-2-2--|
G|-1--1-1-(1)-1-1-1-|-2---2--2-(2)-2-2-2--|
D|-2--2-2-(2)-2-2-2-|-2---2--2-(2)-2-2-2--|
A|-2--2-2-(2)-2-2-2-|-0---0--0-(0)-0-0-0--|
E|-0--0-0-(0)-0-0-0-|---------------------|
 |
 | Q  E E +E  E E E   Q.     E +Q    Q
e|------------------|---------------------|
B|------------------|---------------------|
G|----9-9-(9)-9-9---|---------------------|
D|----9-9-(9)-9-9---|----------------2----|
A|------------------|-0-----/4-(4)--------|
E|-0----------------|---------------------|


                                  To Coda
  E                  A
   Q  E E +E  E E E   Q   E  E +E  E E E
e|-0--0-0-(0)-0-0-0-|-0---0--0-(0)-0-0-0--||
B|-0--0-0-(0)-0-0-0-|-2---2--2-(2)-2-2-2--||
G|-1--1-1-(1)-1-1-1-|-2---2--2-(2)-2-2-2--||
D|-2--2-2-(2)-2-2-2-|-2---2--2-(2)-2-2-2--||
A|-2--2-2-(2)-2-2-2-|-0---0--0-(0)-0-0-0--||
E|-0--0-0-(0)-0-0-0-|---------------------||
 |
 | Q  E E +E  E E E   Q.     E +Q    Q
e|------------------|---------------------||
B|------------------|---------------------||
G|----9-9-(9)-9-9---|---------------------||
D|----9-9-(9)-9-9---|----------------2----||
A|------------------|-0-----/4-(4)--------||
E|-0----------------|---------------------||


 [Interlude]
   E5    D5E5    D5E5
   E S S E E S S E E  E   W
e|----------------------|----------------------|
B|-5-5-5-3-5-5-5-3-5\---|----------------------|
G|-4-4-4-2-4-4-4-2-4\---|----------------------|
D|-------0-------0------|----------------------|
A|----------------------|----------------------|
E|----------------------|----------------------|
 |
 |                        PM--------------|
 | W                      E S S E E S S E E  E
e|----------------------|----------------------|
B|----------------------|----------------------|
G|----------------------|----------------------|
D|----------------------|----------------------|
A|----------------------|-7-7-7-5-7-7-7-5-7\---|
E|----------------------|----------------------|


   E5    D5E5    D5E5     G     A       B
   E S S E E S S E E  E   Q.    E +Q    Q
e|----------------------|-3-----0-(0)------|
B|-5-5-5-3-5-5-5-3-5\---|-0-----2-(2)---4--|
G|-4-4-4-2-4-4-4-2-4\---|-0-----2-(2)---4--|
D|-------0-------0------|-0-----2-(2)---4--|
A|----------------------|-2-----0-(0)---2--|
E|----------------------|-3----------------|
 |
 |                        PM----------------
 | W                      Q   E E +E  E Q
e|----------------------|------------------|
B|----------------------|------------------|
G|----------------------|------------------|
D|----------------------|------------------|
A|----------------------|-5---5-7-(7)-7-9--|
E|----------------------|-3---3-5-(5)-5-7--|


 1.
   E E Q   E E E E   E E Q   E E E E
e|-0-0-0---0-0-0-0-|-0-0-0---0-0-0-0---||
B|-0-0-0---0-0-0-0-|-0-0-0---0-0-0-0--o||
G|-1-1-1---1-1-1-1-|-1-1-1---1-1-1-1---||
D|-2-2-2---2-2-2-2-|-2-2-2---2-2-2-2---||
A|-2-2-2---2-2-2-2-|-2-2-2---2-2-2-2--o||
E|-0-0-0---0-0-0-0-|-0-0-0---0-0-0-0---||
 |
 |---------------------------------|
 | E E E E E E E E   E E E E E E E E
e|-----------------|-------------------||
B|-----------------|------------------o||
G|-----------------|-------------------||
D|---------------2-|---------------2---||
A|---------2-2-4---|---------2-2-4----o||
E|-0-0-4-4---------|-0-0-4-4-----------||


                                        [Outro]
  2.
                   Dal Segno al Coda    Coda &
   E                                     E5    D5E5    D5E5
   E E Q   E E E E   E E Q   E E E E     E S S E E S S E E  E
e|-0-0-0---0-0-0-0-|-0-0-0---0-0-0-0--||----------------------|
B|-0-0-0---0-0-0-0-|-0-0-0---0-0-0-0--||-5-5-5-3-5-5-5-3-5\---|
G|-1-1-1---1-1-1-1-|-1-1-1---1-1-1-1--||-4-4-4-2-4-4-4-2-4\---|
D|-2-2-2---2-2-2-2-|-2-2-2---2-2-2-2--||-------0-------0------|
A|-2-2-2---2-2-2-2-|-2-2-2---2-2-2-2--||----------------------|
E|-0-0-0---0-0-0-0-|-0-0-0---0-0-0-0--||----------------------|
 |
 | PM------------------------------|
 | E E E E E E E E   E E E E E E E E     W
e|-----------------|------------------||----------------------|
B|-----------------|------------------||----------------------|
G|-----------------|------------------||----------------------|
D|---------------2-|---------------2--||----------------------|
A|---------2-2-4---|---------2-2-4----||----------------------|
E|-0-0-4-4---------|-0-0-4-4----------||----------------------|


   N.C.       E5    D5E5    D5E5           D5E5    D5E5
   W          E S S E E S S E E  E   E S S E E S S E E  E
e|----------|----------------------|----------------------*|
B|----------|-5-5-5-3-5-5-5-3-5\---|-5-5-5-3-5-5-5-3-5\---*|
G|----------|-4-4-4-2-4-4-4-2-4\---|-4-4-4-2-4-4-4-2-4\---*|
D|----------|-------0-------0------|-------0-------0------*|
A|----------|----------------------|----------------------*|
E|----------|----------------------|----------------------*|
 |
 | W          W                      E S S E E S S E E  E
e|----------|----------------------|----------------------*|
B|----------|----------------------|----------------------*|
G|----------|----------------------|-9-9-9-7-9-9-9-7-9----*|
D|----------|----------------------|-9-9-9-7-9-9-9-7-9----*|
A|----------|----------------------|----------------------*|
E|----------|----------------------|----------------------*|

            
Submit corrections

↑ Back to top | Tablatures and chords for acoustic guitar and electric guitar, ukulele, drums are parodies/interpretations of the original songs. You may use it for private study, scholarship, research or language learning purposes only