Home » R » Roy Orbison »

Roy Orbison - Claudette Bass

Artists:  A B C D E F G H I J K L M N O P Q R S T U V W X Y Z # 

Claudette Bass

(ver. 1) Click to play this song!
Roy Orbison
Gtr I (E A D G) - 'Dennis Belfield - Bass'

 [Intro]
 Q=134
 4/4
  Gtr I
   W          W          W
G|----------|----------|------|
D|----------|----------|------|
A|----------|----------|------|
E|----------|----------|------|


   E E E E E E E E   W          Q.    E +Q   Q    Q  Q  Q  Q
G|-----------------|----------|-----------------|--------------|
D|-----------------|----------|-----------------|--------------|
A|-7-7-5-7-7-5-7---|----------|-----------------|-------2--4---|
E|-----------------|----------|-3----/5-(5)--7--|-0--4---------|


                 [1st - 3rd Verses]
                 Segno $
   Q  Q  Q  Q      Q  Q  Q  Q    Q  Q  Q  Q
G|-------------||--------------|-------------|
D|-------------||o-------------|-------------|
A|-------2--4--||o-------2--4--|-------2--4--|
E|-0--4--------||--0--4--------|-0--4--------|


   Q  Q  Q  Q    Q  Q  Q  Q    Q  Q  Q  Q
G|-------------|-------------|-------------|
D|-------------|-------------|-------2--4--|
A|-------2--4--|-------2--4--|-0--4--------|
E|-0--4--------|-0--4--------|-------------|


   Q  Q  Q  Q    E E Q  H      W
G|-------------|-------------|------||
D|-------2--4--|-------------|------||
A|-0--4--------|-2-----------|------||
E|-------------|-------------|------||


 [Chorus]
   Q.   Q.   Q    Q.   Q.   Q    Q.   Q.   Q
G|--------------|--------------|--------------|
D|--------------|--------------|--------------|
A|-----------2--|------4----7--|-----------2--|
E|-0----4-------|-5------------|-0----4-------|


   Q.   Q.   Q    Q.   Q.   Q    Q.   Q.   Q
G|--------------|--------------|--------------|
D|--------------|--------------|--------------|
A|------4----7--|-----------2--|------6----9--|
E|-5------------|-0----4-------|-7------------|


   Q.   Q.   Q    Q.   Q.   Q    Q.   Q.   Q
G|--------------|--------------|--------------|
D|--------------|--------------|--------------|
A|------4----7--|------6----9--|------4----7--|
E|-5------------|-7------------|-5------------|


   Q.   Q.   Q    Q.   Q.   Q    Q.   Q.   Q
G|--------------|--------------|--------------|
D|--------------|--------------|--------------|
A|------4----2--|------4----7--|------4----2--|
E|-0------------|-5------------|-0------------|


                 [Interlude]
        To Coda
   Q.   Q.   Q     E E Q  H      E E E E E E E E   W
G|--------------||-------------|-----------------|------|
D|--------------||-------------|-----------------|------|
A|------6----7--||-------------|-7-7-5-7-7-5-7---|------|
E|-5------------||-0-----------|-----------------|------|


                    1.
   Q.    E +Q   Q    Q  Q  Q  Q    Q  Q  Q  Q
G|-----------------|-------------|--------------||
D|-----------------|-------------|-------------o||
A|-----------------|-------2--4--|-------2--4--o||
E|-3----/5-(5)--7--|-0--4--------|-0--4---------||


                               [Outro]
  2.
           Dal Segno al Coda   Coda &
   Q  Q  Q  Q    Q  Q  Q  Q     E E Q  H
G|-------------|-------------||-------------|
D|-------------|-------------||-------------|
A|-------2--4--|-------2--4--||-------------|
E|-0--4--------|-0--4--------||-0-----------|


   W          W          E E E E E E e E
G|----------|----------|-----------------*|
D|----------|----------|-----------------*|
A|----------|----------|-7-7-5-7-7-5-7---*|
E|----------|----------|-----------------*|

            
Submit corrections

↑ Back to top | Tablatures and chords for acoustic guitar and electric guitar, ukulele, drums are parodies/interpretations of the original songs. You may use it for private study, scholarship, research or language learning purposes only