» » »

Roxette - Fading Like A Flower Tabs

Artists:  A B C D E F G H I J K L M N O P Q R S T U V W X Y Z # 

Fading Like A Flower Tabs

(ver. 3) Click to play this song!
Roxette
 Rating:
4.1/5 (31 vote)

 Fading Like A Flower lessons Tabs too difficult? Try these video lessons and learn fast
 
                e|-----------------------------------------------|
B|------------------------------------8-8p6-8----|
G|-5h7-7br-5-3-3h5-3--(3)/5-5h7-7br-5------------|
D|-----------------------------------------------|
A|-----------------------------------------------|
E|-----------------------------------------------|

e|-8-8p6-6---------------------------------------|
B|-----------h8-8p6-6----------------------------|
G|----------------------h8-8p7-7p5---5p3-3h5-5---|
D|-----------------------------------------------|
A|-----------------------------------------------|
E|-----------------------------------------------|

   |-hold-|
e|-----8---------------------------|
B|-8bbbbbr-8-8-6-8brp6-6h8---------|
G|------------------------------8--|
D|---------------------------------|
A|---------------------------------|
E|---------------------------------|            
Submit corrections


        Fading Like A Flower lessons Hard to play? Try these video lessons and learn fast Fading Like A Flower lessons
        
↑ Back to top | Tablatures and chords for acoustic guitar and electric guitar, ukulele, drums are parodies/interpretations of the original songs. You may use it for private study, scholarship, research or language learning purposes only