Home » R » Roxen »

Roxen - Tau Phir Aaoooo Mujh Ko Tabs

Artists:  A B C D E F G H I J K L M N O P Q R S T U V W X Y Z # 

Tau Phir Aaoooo Mujh Ko Tabs

(ver. 1) Click to play this song!
Roxen
  band:roxen
       
  Chords played in this song are C,F,Em 
      C          F          Em
 E|---0---|  E|--1---|  E|--0---|                         
 B|---1---|  B|--1---|  B|--0---|           
 G|---0---|  G|--2---|  G|--0---|          
 D|---2---|  D|--3---|  D|--2---|        
 A|---3---|  A|--0---|  A|--2---|      
 E|---0---|  E|--0---|  E|--0---|     
   
  CHORUS:
   Tau phir aao....
 E|----0000------|
 B|----1111------|
 G|----0000------|
 D|----2222------|
 A|----3333------|
 E|----0000------|  
 
  mujh ko satao......
 E|----1111------|
 B|----1111------|
 G|----2222------|
 D|----3333------|
 A|----0000------|
 E|----0000------| 

  Tau phir aao......
 E|----0000------|
 B|----1111------|
 G|----0000------|
 D|----2222------|
 A|----3333------|
 E|----0000------|  
 
  mujh ko rolaoo....
 E|----1111------|
 B|----1111------|
 G|----2222------|
 D|----3333------|
 A|----0000------|
 E|----0000------|  
 
  then a little strumming is done on C and F CHORD then
  
  hum rahe ......
 E|----0000------|
 B|----1111------|
 G|----0000------|
 D|----2222------|
 A|----3333------|
 E|----0000------|   
  
  na rahe.....
 E|----1111------|
 B|----1111------|
 G|----2222------|
 D|----3333------|
 A|----0000------|
 E|----0000------| 
 
  gum sahe .....
 E|----0000------|
 B|----1111------|
 G|----0000------|
 D|----2222------|
 A|----3333------|
 E|----0000------|   
  
 na sahe....
 E|----1111------|
 B|----1111------|
 G|----2222------|
 D|----3333------|
 A|----0000------|
 E|----0000------|  
 
  shamainn dhale...
 E|----0000------|
 B|----1111------|
 G|----0000------|
 D|----2222------|
 A|----3333------|
 E|----0000------|   
 
  na dhale....
 E|----1111------|
 B|----1111------|
 G|----2222------|
 D|----3333------|
 A|----0000------|
 E|----0000------|  
 
 yeh raatein kate..
 E|----0000------|
 B|----1111------|
 G|----0000------|
 D|----2222------|
 A|----3333------|
 E|----0000------|   
 
  na kate....
 E|----1111------|
 B|----1111------|
 G|----2222------|
 D|----3333------|
 A|----0000------|
 E|----0000------|   
 
 Tau phir aao....
 E|----0000------|
 B|----1111------|
 G|----0000------|
 D|----2222------|
 A|----3333------|
 E|----0000------|  
 
  mujh ko satao......
 E|----1111------|
 B|----1111------|
 G|----2222------|
 D|----3333------|
 A|----0000------|
 E|----0000------| 

  Tau phir aao......
 E|----0000------|
 B|----1111------|
 G|----0000------|
 D|----2222------|
 A|----3333------|
 E|----0000------|  
 
  mujh ko rolaoo....hooooo..
 E|----1111------|
 B|----1111------|
 G|----2222------|
 D|----3333------|
 A|----0000------|
 E|----0000------| 
 
  aaa bhi jaoo...
 E|----0000------|
 B|----1111------|
 G|----0000------|
 D|----2222------|
 A|----3333------|
 E|----0000------|  
  
  aaa bhii jaoo..
 E|----1111------|
 B|----1111------|
 G|----2222------|
 D|----3333------|
 A|----0000------|
 E|----0000------|  
 
  aa bhi jaao..
 E|----0000------|
 B|----0000------|
 G|----0000------|
 D|----2222------|
 A|----2222------|
 E|----0000------| 
 
 aa bhi jaaoo...
 E|----1111------|
 B|----1111------|
 G|----2222------|
 D|----3333------|
 A|----0000------|
 E|----0000------|  
 
 aa bhii jaooo...
 E|----0000------|
 B|----1111------|
 G|----0000------|
 D|----2222------|
 A|----3333------|
 E|----0000------|  
  
 aa bhii jaooo...
 E|----1111------|
 B|----1111------|
 G|----2222------|
 D|----3333------|
 A|----0000------|
 E|----0000------|  
 
 aa bhi jaoo... 
 E|----0000------|
 B|----0000------|
 G|----0000------|
 D|----2222------|
 A|----2222------|
 E|----0000------|  
 
 aa bhi jaooo... ohhhh..
 E|----1111------|
 B|----1111------|
 G|----2222------|
 D|----3333------|
 A|----0000------|
 E|----0000------|  
 
 hum rahe ......
 E|----0000------|
 B|----1111------|
 G|----0000------|
 D|----2222------|
 A|----3333------|
 E|----0000------|   
  
  na rahe.....
 E|----1111------|
 B|----1111------|
 G|----2222------|
 D|----3333------|
 A|----0000------|
 E|----0000------| 
 
  dil ki sunay.....
 E|----0000------|
 B|----1111------|
 G|----0000------|
 D|----2222------|
 A|----3333------|
 E|----0000------|   
  
 na sunay....
 E|----1111------|
 B|----1111------|
 G|----2222------|
 D|----3333------|
 A|----0000------|
 E|----0000------|  
 
  yeh tufaan thame...
 E|----0000------|
 B|----1111------|
 G|----0000------|
 D|----2222------|
 A|----3333------|
 E|----0000------|   
 
  na thamey....
 E|----1111------|
 B|----1111------|
 G|----2222------|
 D|----3333------|
 A|----0000------|
 E|----0000------|  
 
 yeh ansoo rokay..
 E|----0000------|
 B|----1111------|
 G|----0000------|
 D|----2222------|
 A|----3333------|
 E|----0000------|   
 
  na rokay....
 E|----1111------|
 B|----1111------|
 G|----2222------|
 D|----3333------|
 A|----0000------|
 E|----0000------|  
 
  Tau phir aao....
 E|----0000------|
 B|----1111------|
 G|----0000------|
 D|----2222------|
 A|----3333------|
 E|----0000------|  
 
  mujh ko satao......
 E|----1111------|
 B|----1111------|
 G|----2222------|
 D|----3333------|
 A|----0000------|
 E|----0000------| 

  Tau phir aao......
 E|----0000------|
 B|----1111------|
 G|----0000------|
 D|----2222------|
 A|----3333------|
 E|----0000------|  
 
  mujh ko rolaoo....hooooo..
 E|----1111------|
 B|----1111------|
 G|----2222------|
 D|----3333------|
 A|----0000------|
 E|----0000------| 
 
  aaa bhi jaoo...
 E|----0000------|
 B|----1111------|
 G|----0000------|
 D|----2222------|
 A|----3333------|
 E|----0000------|  
  
  aaa bhii jaoo..
 E|----1111------|
 B|----1111------|
 G|----2222------|
 D|----3333------|
 A|----0000------|
 E|----0000------|  
 
  aa bhi jaao..
 E|----0000------|
 B|----0000------|
 G|----0000------|
 D|----2222------|
 A|----2222------|
 E|----0000------| 
 
 aa bhi jaaoo...
 E|----1111------|
 B|----1111------|
 G|----2222------|
 D|----3333------|
 A|----0000------|
 E|----0000------|  
 
 aa bhii jaooo...
 E|----0000------|
 B|----1111------|
 G|----0000------|
 D|----2222------|
 A|----3333------|
 E|----0000------|  
  
 aa bhii jaooo...
 E|----1111------|
 B|----1111------|
 G|----2222------|
 D|----3333------|
 A|----0000------|
 E|----0000------|  
 
 aa bhi jaoo... 
 E|----0000------|
 B|----0000------|
 G|----0000------|
 D|----2222------|
 A|----2222------|
 E|----0000------|  
 
 aa bhi jaooo... ohhhh..
 E|----1111------|
 B|----1111------|
 G|----2222------|
 D|----3333------|
 A|----0000------|
 E|----0000------|  

 SOLO:
 E|-8h10-8-7h8-8-5-7-5h7-7-7-5--3-3h5-3-1-1h3-3-3s5-5-3------------------|
 B|----------------------------------------------------------------------|
 G|-------------------------------------------------------7-5-4----------|
 D|----------------------------------------------------------------------|
 A|----------------------------------------------------------------------|
 E|----------------------------------------------------------------------|
 
 E|---33-3s5-55-5s7-7-7s8-8-88-8s10-10-10-10-10-12-10-10-10-8-8-8-7-7-7-|
 B|----------------------------------------------------------------------|
 G|----------------------------------------------------------------------|
 D|----------------------------------------------------------------------|
 A|----------------------------------------------------------------------|
 E|----------------------------------------------------------------------|

 E|---12-10-10-10-8-8-8-7-7-7-8-7-7-7-7-5-5h7-7-7-5-5h7-7-7-7-7s8--------|
 B|----------------------------------------------------------------------|
 G|-----------------(this part is repeated twice)------------------------|
 D|----------------------------------------------------------------------|
 A|----------------------------------------------------------------------|
 E|----------------------------------------------------------------------|
 
  chorus
   sapnoy ke ....
 E|----0000------|
 B|----1111------|
 G|----0000------|
 D|----2222------|
 A|----3333------|
 E|----0000------| 
 
 samandar mai...
 E|----1111------|
 B|----1111------|
 G|----2222------|
 D|----3333------|
 A|----0000------|
 E|----0000------|  
 
 doobtai chale..
 E|----0000------|
 B|----1111------|
 G|----0000------|
 D|----2222------|
 A|----3333------|
 E|----0000------| 
 
  jana hai..
 E|----1111------|
 B|----1111------|
 G|----2222------|
 D|----3333------|
 A|----0000------|
 E|----0000------|
 
  in rahoo mai jo....
 E|----0000------|
 B|----1111------|
 G|----0000------|
 D|----2222------|
 A|----3333------|
 E|----0000------|  
 
  khuab hai......
 E|----1111------|
 B|----1111------|
 G|----2222------|
 D|----3333------|
 A|----0000------|
 E|----0000------| 

  in khuaboo ko mujhe......
 E|----0000------|
 B|----1111------|
 G|----0000------|
 D|----2222------|
 A|----3333------|
 E|----0000------|  
 
  mujh pana hai....hooooo..
 E|----1111------|
 B|----1111------|
 G|----2222------|
 D|----3333------|
 A|----0000------|
 E|----0000------| 
 
  aaa bhi jaoo...
 E|----0000------|
 B|----1111------|
 G|----0000------|
 D|----2222------|
 A|----3333------|
 E|----0000------|  
  
  aaa bhii jaoo..
 E|----1111------|
 B|----1111------|
 G|----2222------|
 D|----3333------|
 A|----0000------|
 E|----0000------|  
 
  aa bhi jaao..
 E|----0000------|
 B|----0000------|
 G|----0000------|
 D|----2222------|
 A|----2222------|
 E|----0000------| 
 
 aa bhi jaaoo...
 E|----1111------|
 B|----1111------|
 G|----2222------|
 D|----3333------|
 A|----0000------|
 E|----0000------|  
 
 aa bhii jaooo...
 E|----0000------|
 B|----1111------|
 G|----0000------|
 D|----2222------|
 A|----3333------|
 E|----0000------|  
  
 aa bhii jaooo...
 E|----1111------|
 B|----1111------|
 G|----2222------|
 D|----3333------|
 A|----0000------|
 E|----0000------|  
 
 aa bhi jaoo... 
 E|----0000------|
 B|----0000------|
 G|----0000------|
 D|----2222------|
 A|----2222------|
 E|----0000------|  
 
 aa bhi jaooo... ohhhh..
 E|----1111------|
 B|----1111------|
 G|----2222------|
 D|----3333------|
 A|----0000------|
 E|----0000------|  
 
  so finally the song ends
  

  

 
            
Submit corrections

↑ Back to top | Tablatures and chords for acoustic guitar and electric guitar, ukulele, drums are parodies/interpretations of the original songs. You may use it for private study, scholarship, research or language learning purposes only