Home » R » Rotting Christ »

Rotting Christ - Χ Ξ Σ 666 Tabs

Artists:  A B C D E F G H I J K L M N O P Q R S T U V W X Y Z # 

Χ Ξ Σ 666 Tabs

(ver. 1) Click to play this song!
Rotting Christ
[Verse]

e|---------------------------------------------------------------------------|
B|---------------------------------------------------------------------------|
G|---------------------------------------------------------------------------|
D|---------------------------------------------------------------------------|
A|---------------------------------------------------------------------------|
E|--6--6----6--6----6--6----6--6----6--6----6--6----6--6----6--2-------------|

e|---------------------------------------------------------------------------|
B|---------------------------------------------------------------------------|
G|---------------------------------------------------------------------------|
D|---------------------------------------------------------------------------|
A|---------------------------------------------------------------------------|
E|--6--6----6--6----6--6----6--6----6--6----6--6----6--6----6--2-------------|

e|---------------------------------------------------------------------------|
B|---------------------------------------------------------------------------|
G|---------------------------------------------------------------------------|
D|---------------------------------------------------------------------------|
A|--8--8----8--8----8--8----8--8----8--8----8--8----8--8----8--8-------------|
E|---------------------------------------------------------------------------|

e|---------------------------------------------------------------------------|
B|---------------------------------------------------------------------------|
G|---------------------------------------------------------------------------|
D|---------------------------------------------------------------------------|
A|--13--13---13--13---13--13---13--13---13--13---13--13---13--13---13--13----|
E|---------------------------------------------------------------------------|

e|---------------------------------------------------------------------------|
B|---------------------------------------------------------------------------|
G|---------------------------------------------------------------------------|
D|---------------------------------------------------------------------------|
A|---------------------------------------------------------------------------|
E|--6--6----6--6----6--6----6--6----6--6----6--6----6--6----6--2-------------|

e|---------------------------------------------------------------------------|
B|---------------------------------------------------------------------------|
G|---------------------------------------------------------------------------|
D|---------------------------------------------------------------------------|
A|---------------------------------------------------------------------------|
E|--6--6----6--6----6--6----6--6----6--6----6--6----6--6----6--2-------------|

e|---------------------------------------------------------------------------|
B|---------------------------------------------------------------------------|
G|---------------------------------------------------------------------------|
D|---------------------------------------------------------------------------|
A|--8--8----8--8----8--8----8--8----8--8----8--8----8--8----8--8-------------|
E|---------------------------------------------------------------------------|

e|---------------------------------------------------------------------------|
B|---------------------------------------------------------------------------|
G|---------------------------------------------------------------------------|
D|---------------------------------------------------------------------------|
A|--13--13---13--13---13--13---13--13---13--13---13--13---13--13---13--13----|
E|---------------------------------------------------------------------------|


[Chorus]

e|---------------------------------------------------------------------------|
B|---------------------------------------------------------------------------|
G|---------------------------------------------------------------------------|
D|---------------------------------------------------------------------------|
A|--8----8--6------8--6------8--6----13---13---------------------------------|
E|--6------------------------------------------------------------------------|

e|---------------------------------------------------------------------------|
B|---------------------------------------------------------------------------|
G|---------------------------------------------------------------------------|
D|---------------------------------------------------------------------------|
A|--8----8--6------8--6------8--6----13---13---------------------------------|
E|--6------------------------------------------------------------------------|


[Verse]

e|---------------------------------------------------------------------------|
B|---------------------------------------------------------------------------|
G|---------------------------------------------------------------------------|
D|---------------------------------------------------------------------------|
A|---------------------------------------------------------------------------|
E|--6--6----6--6----6--6----6--6----6--6----6--6----6--6----6--2-------------|

e|---------------------------------------------------------------------------|
B|---------------------------------------------------------------------------|
G|---------------------------------------------------------------------------|
D|---------------------------------------------------------------------------|
A|---------------------------------------------------------------------------|
E|--6--6----6--6----6--6----6--6----6--6----6--6----6--6----6--2-------------|

e|---------------------------------------------------------------------------|
B|---------------------------------------------------------------------------|
G|---------------------------------------------------------------------------|
D|---------------------------------------------------------------------------|
A|--8--8----8--8----8--8----8--8----8--8----8--8----8--8----8--8-------------|
E|---------------------------------------------------------------------------|

e|---------------------------------------------------------------------------|
B|---------------------------------------------------------------------------|
G|---------------------------------------------------------------------------|
D|---------------------------------------------------------------------------|
A|--13--13---13--13---13--13---13--13---13--13---13--13---13--13---13--13----|
E|---------------------------------------------------------------------------|

e|---------------------------------------------------------------------------|
B|---------------------------------------------------------------------------|
G|---------------------------------------------------------------------------|
D|---------------------------------------------------------------------------|
A|---------------------------------------------------------------------------|
E|--6--6----6--6----6--6----6--6----6--6----6--6----6--6----6--2-------------|

e|---------------------------------------------------------------------------|
B|---------------------------------------------------------------------------|
G|---------------------------------------------------------------------------|
D|---------------------------------------------------------------------------|
A|---------------------------------------------------------------------------|
E|--6--6----6--6----6--6----6--6----6--6----6--6----6--6----6--2-------------|

e|---------------------------------------------------------------------------|
B|---------------------------------------------------------------------------|
G|---------------------------------------------------------------------------|
D|---------------------------------------------------------------------------|
A|--8--8----8--8----8--8----8--8----8--8----8--8----8--8----8--8-------------|
E|---------------------------------------------------------------------------|

e|---------------------------------------------------------------------------|
B|---------------------------------------------------------------------------|
G|---------------------------------------------------------------------------|
D|---------------------------------------------------------------------------|
A|--13--13---13--13---13--13---13--13---13--13---13--13---13--13---13--13----|
E|---------------------------------------------------------------------------|


[Chorus]

e|---------------------------------------------------------------------------|
B|---------------------------------------------------------------------------|
G|---------------------------------------------------------------------------|
D|---------------------------------------------------------------------------|
A|--8----8--6------8--6------8--6----13---13---------------------------------|
E|--6------------------------------------------------------------------------|

e|---------------------------------------------------------------------------|
B|---------------------------------------------------------------------------|
G|---------------------------------------------------------------------------|
D|---------------------------------------------------------------------------|
A|--8----8--6------8--6------8--6----13---13---------------------------------|
E|--6------------------------------------------------------------------------|

e|---------------------------------------------------------------------------|
B|---------------------------------------------------------------------------|
G|---------------------------------------------------------------------------|
D|---------------------------------------------------------------------------|
A|--8----8--6------8--6------8--6----13---13---------------------------------|
E|--6------------------------------------------------------------------------|

e|---------------------------------------------------------------------------|
B|---------------------------------------------------------------------------|
G|---------------------------------------------------------------------------|
D|---------------------------------------------------------------------------|
A|--8----8--6------8--6------8--6----13---13---------------------------------|
E|--6------------------------------------------------------------------------|


[Verse]

e|---------------------------------------------------------------------------|
B|---------------------------------------------------------------------------|
G|---------------------------------------------------------------------------|
D|---------------------------------------------------------------------------|
A|--8--8----8--8----8--8----8--8----8--8----8--8----8--8----8--4-------------|
E|--6--6----6--6----6--6----6--6----6--6----6--6----6--6----6--2-------------|

e|---------------------------------------------------------------------------|
B|---------------------------------------------------------------------------|
G|---------------------------------------------------------------------------|
D|---------------------------------------------------------------------------|
A|--8--8----8--8----8--8----8--8----8--8----8--8----8--8----8--4-------------|
E|--6--6----6--6----6--6----6--6----6--6----6--6----6--6----6--2-------------|

e|---------------------------------------------------------------------------|
B|---------------------------------------------------------------------------|
G|---------------------------------------------------------------------------|
D|---------------------------------------------------------------------------|
A|--8--8----8--8----8--8----8--8----8--8----8--8----8--8----8--4-------------|
E|--6--6----6--6----6--6----6--6----6--6----6--6----6--6----6--2-------------|

e|---------------------------------------------------------------------------|
B|---------------------------------------------------------------------------|
G|---------------------------------------------------------------------------|
D|---------------------------------------------------------------------------|
A|--8--8----8--8----8--8----8--8----8--8----8--8----8--8----8--4-------------|
E|--6--6----6--6----6--6----6--6----6--6----6--6----6--6----6--2-------------|

e|---------------------------------------------------------------------------|
B|--11-------11-------11-------11-------11-------11-------11-------11--------|
G|---------------------------------------------------------------------------|
D|---------------------------------------------------------------------------|
A|---------------------------------------------------------------------------|
E|---------------------------------------------------------------------------|

e|---------------------------------------------------------------------------|
B|--11-------11-------11-------11-------11-------11-------11-------11--------|
G|---------------------------------------------------------------------------|
D|---------------------------------------------------------------------------|
A|---------------------------------------------------------------------------|
E|---------------------------------------------------------------------------|

e|---------------------------------------------------------------------------|
B|--18-------18-------18-------18-------18-------18-------18-------18--------|
G|---------------------------------------------------------------------------|
D|---------------------------------------------------------------------------|
A|---------------------------------------------------------------------------|
E|---------------------------------------------------------------------------|

e|--18-------18-------18-------18-------18-------18-------18-------18--------|
B|---------------------------------------------------------------------------|
G|---------------------------------------------------------------------------|
D|---------------------------------------------------------------------------|
A|---------------------------------------------------------------------------|
E|---------------------------------------------------------------------------|

e|---------------------------------------------------------------------------|
B|--11-------11-------11-------11-------11-------11-------11-------11--------|
G|---------------------------------------------------------------------------|
D|---------------------------------------------------------------------------|
A|---------------------------------------------------------------------------|
E|---------------------------------------------------------------------------|

e|---------------------------------------------------------------------------|
B|--11-------11-------11-------11-------11-------11-------11-------11--------|
G|---------------------------------------------------------------------------|
D|---------------------------------------------------------------------------|
A|---------------------------------------------------------------------------|
E|---------------------------------------------------------------------------|

e|---------------------------------------------------------------------------|
B|--18-------18-------18-------18-------18-------18-------18-------18--------|
G|---------------------------------------------------------------------------|
D|---------------------------------------------------------------------------|
A|---------------------------------------------------------------------------|
E|---------------------------------------------------------------------------|

e|--18-------18-------18-------18-------18-------18-------18-------18--------|
B|---------------------------------------------------------------------------|
G|---------------------------------------------------------------------------|
D|---------------------------------------------------------------------------|
A|---------------------------------------------------------------------------|
E|---------------------------------------------------------------------------|


[Chorus]

e|---------------------------------------------------------------------------|
B|---------------------------------------------------------------------------|
G|------------------------------------4----4---------------------------------|
D|---------------------------------------------------------------------------|
A|--8----8--6------8--6------8--6--------------------------------------------|
E|--6------------------------------------------------------------------------|

e|---------------------------------------------------------------------------|
B|---------------------------------------------------------------------------|
G|------------------------------------4----4---------------------------------|
D|---------------------------------------------------------------------------|
A|--8----8--6------8--6------8--6--------------------------------------------|
E|--6------------------------------------------------------------------------|

e|---------------------------------------------------------------------------|
B|---------------------------------------------------------------------------|
G|------------------------------------4----4---------------------------------|
D|---------------------------------------------------------------------------|
A|--8----8--6------8--6------8--6--------------------------------------------|
E|--6------------------------------------------------------------------------|

e|---------------------------------------------------------------------------|
B|---------------------------------------------------------------------------|
G|------------------------------------4----4---------------------------------|
D|---------------------------------------------------------------------------|
A|--8----8--6------8--6------8--6--------------------------------------------|
E|--6------------------------------------------------------------------------|

e|---------------------------------------------------------------------------|
B|---------------------------------------------------------------------------|
G|---------------------------------------------------------------------------|
D|---------------------------------------------------------------------------|
A|--8--8----x-x-x-x----8--8----x-x-x-x----8--8----x-x-x-x----6--6----x-x-x-x-|
E|--6--6----x-x-x-x----6--6----x-x-x-x----6--6----x-x-x-x----4--4----x-x-x-x-|

e|---------------------------------------------------------------------------|
B|---------------------------------------------------------------------------|
G|---------------------------------------------------------------------------|
D|---------------------------------------------------------------------------|
A|--8--8----x-x-x-x----8--8----x-x-x-x----8--8----x-x-x-x----6--6----x-x-x-x-|
E|--6--6----x-x-x-x----6--6----x-x-x-x----6--6----x-x-x-x----4--4----x-x-x-x-|

e|---------------------------------------------------------------------------|
B|--11-------11-------11-------11-------11-------11-------11-------11--------|
G|---------------------------------------------------------------------------|
D|---------------------------------------------------------------------------|
A|---------------------------------------------------------------------------|
E|---------------------------------------------------------------------------|

e|---------------------------------------------------------------------------|
B|--11-------11-------11-------11-------11-------11-------11-------11--------|
G|---------------------------------------------------------------------------|
D|---------------------------------------------------------------------------|
A|---------------------------------------------------------------------------|
E|---------------------------------------------------------------------------|

e|---------------------------------------------------------------------------|
B|--11-------11-------11-------11-------11-------11-------11-------11--------|
G|---------------------------------------------------------------------------|
D|---------------------------------------------------------------------------|
A|---------------------------------------------------------------------------|
E|---------------------------------------------------------------------------|

e|--------------------------------------18-------18-------18-------18--------|
B|--11-------11-------11-------11--------------------------------------------|
G|---------------------------------------------------------------------------|
D|---------------------------------------------------------------------------|
A|---------------------------------------------------------------------------|
E|---------------------------------------------------------------------------|


[Chorus]

e|---------------------------------------------------------------------------|
B|---------------------------------------------------------------------------|
G|---------------------------------------------------------------------------|
D|---------------------------------------------------------------------------|
A|--8----8--6------8--6------8--6----13---13---------------------------------|
E|--6------------------------------------------------------------------------|

e|---------------------------------------------------------------------------|
B|---------------------------------------------------------------------------|
G|---------------------------------------------------------------------------|
D|---------------------------------------------------------------------------|
A|--8----8--6------8--6------8--6----13---13---------------------------------|
E|--6------------------------------------------------------------------------|

e|---------------------------------------------------------------------------|
B|---------------------------------------------------------------------------|
G|---------------------------------------------------------------------------|
D|---------------------------------------------------------------------------|
A|--8----8--6------8--6------8--6----13---13---------------------------------|
E|--6------------------------------------------------------------------------|

e|---------------------------------------------------------------------------|
B|---------------------------------------------------------------------------|
G|---------------------------------------------------------------------------|
D|---------------------------------------------------------------------------|
A|--8----8--6------8--6------8--6----13---13---------------------------------|
E|--6------------------------------------------------------------------------|


[Verse]

e|---------------------------------------------------------------------------|
B|---------------------------------------------------------------------------|
G|---------------------------------------------------------------------------|
D|---------------------------------------------------------------------------|
A|--8--8----8--8----8--8----8--8----8--8----8--8----8--8----8--4-------------|
E|--6--6----6--6----6--6----6--6----6--6----6--6----6--6----6--2-------------|

e|---------------------------------------------------------------------------|
B|---------------------------------------------------------------------------|
G|---------------------------------------------------------------------------|
D|---------------------------------------------------------------------------|
A|--8--8----8--8----8--8----8--8----8--8----8--8----8--8----8--4-------------|
E|--6--6----6--6----6--6----6--6----6--6----6--6----6--6----6--2-------------|

e|---------------------------------------------------------------------------|
B|---------------------------------------------------------------------------|
G|---------------------------------------------------------------------------|
D|---------------------------------------------------------------------------|
A|--8--8----8--8----8--8----8--8----8--8----8--8----8--8----8--4-------------|
E|--6--6----6--6----6--6----6--6----6--6----6--6----6--6----6--2-------------|

e|---------------------------------------------------------------------------|
B|---------------------------------------------------------------------------|
G|---------------------------------------------------------------------------|
D|---------------------------------------------------------------------------|
A|--8--8----8--8----8--8----8--8----8--8----8--8----8--8----8--4-------------|
E|--6--6----6--6----6--6----6--6----6--6----6--6----6--6----6--2-------------|
            
Submit corrections

↑ Back to top | Tablatures and chords for acoustic guitar and electric guitar, ukulele, drums are parodies/interpretations of the original songs. You may use it for private study, scholarship, research or language learning purposes only