Home » R » Roth David Lee »

Roth David Lee - Damn Good Tabs

Artists:  A B C D E F G H I J K L M N O P Q R S T U V W X Y Z # 

Damn Good Tabs

(ver. 1) Click to play this song!
Roth David Lee
Timing is out, but you get the jist.


E|---------------0-------0--------0----------------0-------0--------0--------
B|---------------1------3-3-------1----------------1------3-3-------1--------
G|---------------0-----0---0------0----------------0-----0---0------0--------
D|---------------2--2/4-----4-4\2-2----------------2--2/4-----4-4\2-2--------
A|--------5----0----------------------------5---0----------------------------
D|-0h5h7----0-----------------------0h5h7-----0------------------------------

E|---------------0-------0--------0----------------0-------0--------0--------
B|---------------1------3-3-------1----------------1------3-3-------1--------
G|---------------0-----0---0------0----------------0-----0---0------0--------
D|---------------2--2/4-----4-4\2-2----------------2--2/4-----4-4\2-2--------
A|--------5----0----------------------------5---0----------------------------
D|-0h5h7----0-----------------------0h5h7-----0------------------------------

 
 
E|----------------0---0--------0---0---0---------3p0----0--------7--7---5-5--
B|-------------3---3---3----3---3---3---3-----1------1----1------8--8---7-7--
G|-------------5----5---5---5----5---5---5----0--------0---------9--9---7-7--
D|-------------5------------5-----------------3-----------------10-10---7-7--
A|--------5--0------------3--------------------------------------------------
D|-0h5h7------------------------------------3---------------0----------------
 
 	         
E|-----0---0-------0---0---0---------3p0---0---------12---------7------7--------5
B|---3--3---3----3--3---3---3----1------1----1------12---------7------7--------5-
G|---5---5---5---5---5---5---5---0-------0---------12---------7------7--------5--
D|---5-----------5---------------3-----------------------------------------------
A|-0-----------3------------------------------9/10-10h12p10-9--9-7-5--5-7-5-4----
D|-----------------------------3-------------------------------------------------
            
Submit corrections

↑ Back to top | Tablatures and chords for acoustic guitar and electric guitar, ukulele, drums are parodies/interpretations of the original songs. You may use it for private study, scholarship, research or language learning purposes only