Home » R » Rossi Vasco »

Rossi Vasco - Ogni Volta Tabs

Artists:  A B C D E F G H I J K L M N O P Q R S T U V W X Y Z # 

Ogni Volta Tabs

(ver. 2) Click to play this song!
Rossi Vasco
AUTHOR : V. Rossi
SOLO BY : Solieri (I think!)
  
   A                           C#m                                 
e|-9-10--12---10----9h10p9-----9~--9--10--12---10---9h10p9------------|
B|--------------------------12--------------------------------12------|
G|--------------------------------------------------------------------|
D|--------------------------------------------------------------------|
A|--------------------------------------------------------------------|
E|--------------------------------------------------------------------|

  F#7                                 D               Dm
E|-9~-9--10--12---10---9---10p9--------------------------------5--7---|
B|-------------------------------12---7~~-------------6~--6/7---------|
G|--------------------------------------------------------------------|
D|--------------------------------------------------------------------|
A|--------------------------------------------------------------------|
E|--------------------------------------------------------------------|
 
  Dm               A                        E7              A
E|-7/9----7\5---------------------------------------------------------|
B|-----------------5~------------------9h10--9~~---/7---5---5---------|
G|--------------------------------------------------------------------|
D|--------------------------------------------------------------------|
A|--------------------------------------------------------------------|
E|--------------------------------------------------------------------|
   A
E|------------------7---9~-|   <--- And from here on it starts from the 
B|----------7-9-10---------|        beginning. 
G|---6-7-9-----------------|
D|-9-----------------------|
A|-------------------------|
E|-------------------------|

          _______________________________________
        / )         Michele Baldessari          ( \
       / /|                                     |\ \
     _( ( |          Vipiteno - Italy           | ) )_
    (\\\\ \_/ /îîîîîîîîîîîîîîîîîîîîîîîîîîîî \ \_/ ////)
     \       /                               \       /
      \    _/                                 \_    /
      /___/   "Total ausverkauf ueber alles"    \___\


{title: Ogni volta}
{subtitle: Vasco Rossi}
[A] [C#m7] [F#7] [D] [Dm] [A] [Eadd9]

... e ogni [A]volta che viene giorno,
ogni [C#m7]volta che ritorno,
ogni [F#7]volta che cammino
e mi [D]sembra di averti vicino,
ogni [Dm]volta che mi guardo intorno,
ogni [A]volta che non me ne accorgo,
ogni [E7]volta     che viene [A]giorno.  [E7]

Ogni volta che mi sveglio,
ogni volta che mi sbaglio,
ogni volta che sono sicuro
e ogni volta che mi sembra solo,
ogni volta che mi viene in mente
qualche cosa che non c'entra niente,
ogni volta...

...e ogni volta che non sono coerente,
ogni volta che non è importante,
ogni volta che qualcuno 
si preoccupa per me,
ogni volta che non c'è
proprio quando la stavo cercando,
ogni volta, ogni volta quando...

{c: strumentale sullo stesso giro}

... e ogni volta che non c'entro,
ogni volta che non sono stato,
ogni volta che non guardo in faccia niente
e ogni volta che dopo piango,
ogni volta che rimango
con la testa fra le mani
e rimando   tutto a domani...
            
Submit corrections

↑ Back to top | Tablatures and chords for acoustic guitar and electric guitar, ukulele, drums are parodies/interpretations of the original songs. You may use it for private study, scholarship, research or language learning purposes only