Home » R » Rossa »

Rossa - Ayat-ayat Cinta Tabs

Artists:  A B C D E F G H I J K L M N O P Q R S T U V W X Y Z # 

Ayat-ayat Cinta Tabs

(ver. 1) Click to play this song!
Rossa
 Rating:
4/5 (4 votes)
                Rossa - Ayat-ayat Cinta
(all chords with *top 4 strings only)

To do Fmin7, do Fmin first, then press the 2nd string on the 3rd fret 


e|----5-3--|-6---5-------5-3-|-6---5-----/1-3--|-----------------|
B|--3------|-----------------|-----------------|--6--/3-------8/-|
G|---------|-----------------|-----------------|-----------------|
D|---------|-----------------|-----------------|-----------------|
A|---------|-----------------|-----------------|-----------------|
E|---------|-----------------|-----------------|-----------------|

e|-----------------|-----------------|----------------|-----------------|
B|5------------6-5-|-3/---8----------|-6---5---/2-----|-3---------------|
G|-----------------|-----------------|------------2---|-----------------|
D|-----------------|-----------------|----------------|-----------------|
A|-----------------|-----------------|----------------|-----------------|
E|-----------------|-----------------|----------------|-----------------|


   Dmin             Amaj7             Dmaj/F#          Gmin

e|---------1-------|-----------------|---------2------|-----3-----------|
B|-----3-----------|-----3---2-------|-----3----------|-------3---------|
G|---2---2---------|-------0---------|---2---2--------|---3-------3---3-|
D|-0---------------|---2-------------|-4--------------|-5-------4---3---|
A|-----------------|-0-------0-------|----------------|-----------------|
E|-----------------|-----------------|----------------|-----------------|

e|-----3-----------|-----1-------1---|----------------|-----------------|
B|-----3-------3---|-------3---------|-----3------3---|-----3---2-------|
G|---3---------2---|---2-------2-----|---2------2-----|-------0-0-------|
D|-2---------2-----|-0---------------|----------------|---2-------------|
A|---------0-------|---------3-------|-2------1-------|-0-------0-------|
E|-----------------|-----------------|----------------|-----------------|

(you could easily just repeat this or just strum the chords)

Chorus:

Fmaj7*               Dmin*             Gmin (barre chord)  Cmaj(barrechord)

Amaj                 Dmin* Dmin/C      Bbmaj   Amaj          Dmin*
                   (fingering exactly
                   same like in bar 14)

Played before interlude

e|-----1-0---------|
B|-----------------|
G|---2-------------|
D|-0---------------|
A|-----------------|
E|-------0/10------|

I actually think that's the bass, 
where it slides from the open D string to the 12th fret

Interlude: Fmin7*      Fmin7***          Fmaj7/A****      Bbmin7
                                                   (barre all strings) 
                                                 (8th fret 5th string and
                                                   9th fret 2nd string)

         Bbmin* Cmaj   Fmin Ebmaj         Bbmin7        Cmaj    Amaj


           Dmin



                                                        

During interlude

e|--------8-------8|-11----9-8-9-----|-----------------|----------------|-----------------|
B|-10--11------10--|-----------------|-11-9-8----------|-9-8-6----------|------------8----|
G|----------10-----|-----------------|-----------------|----------------|----------7---10-|
D|-----------------|-----------------|-----------------|-----------/10--|-/6-----8--------|
A|-----------------|-----------------|-----------------|-----------/11--|-/5--------------|
E|-----------------|-----------------|-----------------|----------------|-----------------|

e|-----------------|-----------------|-------------------|
B|-----------------|-----------------|-------------------|
G|-9---10---12---9-|-10--------------|-------------------|
D|-----------------|---------------0/|12----------------/|
A|-----------------|-----------------|-------------------|
E|-----------------|-----------------|-------------------|


Last verse before ending chorus

e|-----1-----------|-----0-----------|-----2-----------|-----3----------|
B|-------3---------|-------2---------|-------1---------|-------3--------|
G|---2-------------|-----------------|---2-------------|---3------------|
D|-0---------------|---2-------------|-0---------------|-5--------------|
A|-----------------|-0---------------|-----------------|----------------|
E|-----------------|-----------------|-----------------|----------------|

e|-----3-------0---|-----1-----------|-----------------|-----0----------|
B|-------3---2-----|-------3---------|-----------------|-------3--------|
G|---3-------------|---2-------------|-----2-----------|----------------|
D|-2-------2-------|-0---------------|---0-------------|---2------------|
A|-----------------|-----------------|-2-------1-------|-0--------------|
E|-----------------|-----------------|-----------------|----------------|

Repeat chorus




 

***I think the person playing the guitar actually still strums that Fmin7...weird..
A Cmaj chord would sound more nicer, but that's my suggestion

****Highest string muted, and keep that finger on the 3rd fret of 2nd string


Note: I noticed in the 2nd line of interlude that the way the guitarist strums
is always first strum, half chord, 2nd strum, chord played with the highest string  

Also last bar of interlude slide from 0/12, termolo pick
            
Submit corrections

↑ Back to top | Tablatures and chords for acoustic guitar and electric guitar, ukulele, drums are parodies/interpretations of the original songs. You may use it for private study, scholarship, research or language learning purposes only