» » »

Rory Gallagher - Used To Be Tabs

Artists:  A B C D E F G H I J K L M N O P Q R S T U V W X Y Z # 

Used To Be Tabs

(ver. 1) Click to play this song!
Rory Gallagher
 Rating:
4/5 (4 votes)

 Used To Be lessons Tabs too difficult? Try these video lessons and learn fast
 
                Used To Be                                    
                                                                 Rory Gallagher
Rory Gallagher



                                                                                
E||--------------------------|--------------------------|----------------------|
B||--------------------------|--------------------------|----------------------|
G||--2--------x--2--2--------|--2--------x--2--2--------|--2----------2--------|
D||--5--------x--5--2h4h2----|--4--------x--4--2h4-2----|--2-------------2--2--|
A||--0--------x-----------5--|--0--------x-----------5--|--0-------------------|
E||--------------------------|--------------------------|----------------------|


                                                                              
-----------------------|--------------------------|--------------------------|
-----------------------|--------------------------|--------------------------|
------------------2----|--2--------x--2--2--------|--2--------x--2--2--------|
------------------2----|--5--------x--5--2h4h2----|--4--------x--4--2h4-2----|
-------0----------0----|--0--------x-----------5--|--0--------x-----------5--|
--3b------3b---3b-x----|--------------------------|--------------------------|


                                                                 
--------------------|-----------------------|--8----------------|
--------------------|-----------------------|--5----------------|
--2-----------------|-----------------------|--6----------------|
--2-----------------|------------------2----|--5----------------|
--0-----------------|--0-------0-------0----|--7----------------|
---------------3b---|-----3b------3b--------|--5----------------|


                                                            
--8----------------|--8----------------|--8----------------|
--5----------------|--5----------------|--5----------------|
--6----------------|--6----------------|--6----------------|
--5----------------|--5----------------|--5----------------|
--7----------------|--7----------------|--7----------------|
--5----------------|--5----------------|--5----------------|


                                                      
--------2-----3h2-0--------|--------2-----------2----|
--------3--3---------3-----|--------3-----------3----|
-----2------------------2--|-----2-----2-----2-------|
--0------------------------|--0-----------0----------|
---------------------------|-------------------------|
---------------------------|-------------------------|


                                                      
-----------------------------|-----------------------|
-----------------------------|-----------------------|
-----------------2-----2-----|----------2----2-------|
--2----x--2--2h5---2h5---2h5-|-------x--2----2-------|
--0----x--x------------------|--0----x--0----0--0----|
----------x------------------|-----------------------|


                                                        
---------------------------|---------------------------|
------------------------7--|------------------------7--|
--------------------7---7--|--------------------7---7--|
--------------------7h9----|--------------------7h9----|
--7--7--7--7--7--7---------|--7--7--7--7--7--7---------|
--0--0--0--0--0--0---------|--0--0--0--0--0--0---------|


                                                     
--------------------------|-------------------------|
--------------------------|-------------------------|
--------------------------|-------------------------|
--------------------------|--------------------7/---|
--7--7--7--7--7--7--7--7--|--7--7--7--7--7--7--7/---|
--0--0--0--0--0--0--0--0--|--0--0--0--0--0--0-------|


                                                                              
--------2-----3h2-0--------|-------------------|-----------------------------|
--------3------------3--3--|-------------------|-----------------------------|
--2--2-----2------------2--|-------------------|-----------------2-----2-----|
--0------------------------|--5----------------|--2----x--2--2h5---2h5---2h5-|
---------------------------|--3----------------|--0----x--x------------------|
---------------------------|-------------------|----------x------------------|


                                                                
-----------------------|-------------------|--8----------------|
-----------------------|-------------------|--5----------------|
----------2----2-------|--2----------------|--6----------------|
-------x--2----2-------|--2----------------|--5----------------|
--0----x--0----0-------|--0----------------|--7----------------|
------------------3b---|-------------------|--5----------------|


                                                                    
--8----------------|--8----------------|--------2-----3h2-0-----2--|
--5----------------|--5----------------|--------3--3---------3-----|
--6----------------|--6----------------|-----2---------------------|
--5----------------|--5----------------|--0------------------------|
--7----------------|--7----------------|---------------------------|
--5----------------|--5----------------|---------------------------|


                                                                                
--------2-----2-----2----|----------------------------|------------------------|
--------3-----------3----|----------------------------|------------------------|
-----2-----2-----2-------|--------------9--9-11-9-----|--2----x------2---------|
--0-----------0----------|--2----x--7-9-9b-9b---9r----|--2----x--2-4------2----|
-------------------------|--0----x-----------------9--|--0----x-----------0----|
-------------------------|----------------------------|------------------------|


                                                        
---------------------------|---------------------------|
------------------------7--|------------------------7--|
--------------------7---7--|--------------------7---7--|
--------------------7h9----|--------------------7h9----|
--7--7--7--7--7--7---------|--7--7--7--7--7--7---------|
--0--0--0--0--0--0---------|--0--0--0--0--0--0---------|


                                                     
--------------------------|-------------------------|
--------------------------|-------------------------|
--------------------------|-------------------------|
--------------------------|--------------------7/---|
--7--7--7--7--7--7--7--7--|--7--7--7--7--7--7--7/---|
--0--0--0--0--0--0--0--0--|--0--0--0--0--0--0-------|


                                                                               
--------2-----3h2-0--------|-------------------|------------------------------|
--------3------------3--3--|-------------------|------------------------------|
--2--2-----2------------2--|-------------------|------------------2-----2-----|
--0------------------------|--5----------------|--2----x--2-2-2h5---2h5---2h5-|
---------------------------|--3----------------|--0----x--x-------------------|
---------------------------|-------------------|----------x-------------------|


                                                                         
------------------------|-----------------------|-----------------------|
---------------2--------|--5----x--5------x--x--|--5----x--5------x--x--|
--2-------2----x--2--0--|--5----x--5------x--x--|--5----x--5------x--x--|
-------x--2----2--------|--4----x--4------x--x--|--4----x--4------x--x--|
-------x--0----0--------|--5-------5------------|--5-------5------------|
------------------------|-----------------------|-----------------------|


                                                                        
-----------------------|-----------------------|-----------------------|
----------1------------|--3--------------------|--5----x--5------x--x--|
--2----x--0------x--x--|--2----x--2------x--x--|--5----x--5------x--x--|
--2----x--2------x--x--|--0----x--2------x--x--|--4----x--4------x--x--|
--0----x--3------x--x--|-------x--0------x--x--|--5-------5------------|
-----------------------|-----------------------|-----------------------|


                                                                  
-----------------------|---------------------|-------------------|
--5----x--5------x--x--|---------------------|-------------------|
--5----x--5------x--x--|--2----x--2----------|--1----------------|
--4----x--4------x--x--|--2----x--2----------|--2----------------|
--5-------5------------|--2----x--2----------|--2----------------|
-----------------------|---------------------|-------------------|


                                                                          
--------------------------|--------------------------|-------------------|
--------------------------|--------------------------|-------------------|
--2--------x--2--2--------|--2--------x--2--2--------|--2----------------|
--5--------x--5--2h4h2----|--4--------x--4--2h4-2----|--2----------------|
--0--------x-----------5--|--0--------x-----------5--|--0----------------|
--------------------------|--------------------------|-------------------|


                                                                           
--------------------|--------------------------|--------------------------|
--12b---------------|--------------------------|--------------------------|
--------------------|--2--------x--2--2--------|--2--------x--2--2--------|
--------------------|--5--------x--5--2h4h2----|--4--------x--4--2h4-2----|
--------------------|--0--------x-----------5--|--0--------x-----------5--|
--------------------|--------------------------|--------------------------|


                                                                  
-------------------|-----------------------|--15b---------x------|
-------------------|-----------------------|--------------x------|
--2----------------|-----------------------|---------------------|
--2----------------|-----------------------|---------------------|
--0----------------|-----------------0/-x--|---------------------|
-------------------|--3b-------5/-0--x--x--|---------------------|


                                                                          
---15b-----12h15h12--------------------|---------------------------------|
--------------------15-13-12h13h12-----|---------------------------------|
------------------------------------14-|-----12--------------------------|
---------------------------------------|---------------12h14h12----12-14-|
---------------------------------------|------------------------15-------|
---------------------------------------|---------------------------------|


                                                                        
-----------------------------------|-----------------------------------|
---------------13-15-15b-----------|--13-15-15b-------15-13-15-13------|
---12-14h12---------------------14-|------------------------------14---|
------------14---------------------|-----------------------------------|
-----------------------------------|-----------------------------------|
-----------------------------------|-----------------------------------|


                                                                      
---------------------------------|-----------------------------------|
-------13-15--15-13-15--15r--13--|--------13--x----------------------|
---14----------------------------|--14--------x-------12-14-11-12-14-|
---------------------------------|------------x----14----------------|
---------------------------------|-----------------------------------|
---------------------------------|-----------------------------------|


                                                            
-----------------------------|-----------------------------|
--12b-------10h12h10-8-9-----|-------9-7---9--10--7h9h7----|
-----------------------------|-----------9--------------9--|
-----------------------------|-----------------------------|
-----------------------------|-----------------------------|
-----------------------------|--0--------------------------|


                                                                         
---------------------------------|--------------------------------------|
-------9-7---10--9-7h9h7---------|--------------------------------------|
-----------9-------------9-7-6-7-|--6-7-9-6-7h9h7-6---------------6-7-9-|
---------------------------------|------------------9-7-6---6-7h9-------|
---------------------------------|------------------------9-------------|
--0------------------------------|--------------------------------------|


                                                
----------------------|----------2-------------|
----------------------|--3-------3-------------|
--9~---9~---9~---9~---|--2---------------2--x--|
----------------------|--0----0-------0--0--x--|
----------------------|------------------------|
----------------------|------------------------|


                                                                
--------------------------------|------------------------------|
--------------------------------|------------------------------|
--0-2-0---0-2-0-----------------|------------------2-----2-----|
--------3-------3-2--0-2----0-2-|--2----x--2-2-2h5---2h5---2h5-|
-------------------------3------|--0----x--x-------------------|
--------------------------------|----------x-------------------|


                                                                        
-----------------------|-----------------------|-----------------------|
-----------------------|--5----x--5------x--x--|--5----x--5------x--x--|
----------2------x-----|--5----x--5------x--x--|--5----x--5------x--x--|
--2----x--2------x--4--|--4----x--4------x--x--|--4----x--4------x--x--|
--0----x--0------x--5--|--5-------5------------|--5-------5------------|
-----------------------|-----------------------|-----------------------|


                                                                        
-----------------------|-----------------------|-----------------------|
----------1------------|--3--------------------|--5----x--5------x--x--|
--2----x--0------x--x--|--2----x--2------x--x--|--5----x--5------x--x--|
--2----x--2------x--x--|--0----x--2------x--4--|--4----x--4------x--x--|
--0----x--3------x--x--|-------x--0------x--5--|--5-------5------------|
-----------------------|-----------------------|-----------------------|


                                                                    
-----------------------|-----------------------|-------------------|
--5----x--5------x--x--|-----------------------|-------------------|
--5----x--5------x--x--|--2----x--2------x--x--|--1----------------|
--4----x--4------x--x--|--2----x--2------x--x--|--2----------------|
--5-------5------------|--2----x--2------x--x--|--2----------------|
-----------------------|-----------------------|-------------------|


                                                                          
--------------------------|--------------------------|-------------------|
--------------------------|--------------------------|-------------------|
--2--------x--2--2--------|--2--------x--2--2--------|--2----------------|
--5--------x--5--2h4h2----|--4--------x--4--2h4-2----|--2----------------|
--0--------x-----------5--|--0--------x-----------5--|--0----------------|
--------------------------|--------------------------|-------------------|


                                                                               
------------12----------|--------------------------|--------------------------|
--12b-------------12r---|--------------------------|--------------------------|
------------------------|--2--------x--2--2--------|--2--------x--2--2--------|
------------------------|--5--------x--5--2h4h2----|--4--------x--4--2h4-2----|
------------------------|--0--------x-----------5--|--0--------x-----------5--|
------------------------|--------------------------|--------------------------|


                                                                
--------------------|----------------------|--8----------------|
--------------------|----------------------|--5----------------|
--2-----------------|----------------------|--6----------------|
--2-----------------|----------------------|--5----------------|
--0--------------0--|-------0--------------|--7----------------|
--------------------|--3b------3b---3b-----|--5----------------|


                                                              
--8----------------|--8----------------|--8------------8/-x--|
--5----------------|--5----------------|--5------------5/-x--|
--6----------------|--6----------------|--6------------6/-x--|
--5----------------|--5----------------|--5------------------|
--7----------------|--7----------------|--7------------------|
--5----------------|--5----------------|--5------------------|


                                                      
--------2-----3h2-0-----2--|--------2-----2-----2----|
--------3--3---------3-----|--------3-----------3----|
-----2---------------------|-----2-----2-----2-------|
--0------------------------|--0-----------0----------|
---------------------------|-------------------------|
---------------------------|-------------------------|


                                                      
-----------------------------|-----------------------|
-----------------------------|-----------------------|
-----------------2-----2-----|----------2----2-------|
--2----x--2--2h5---2h5---2h5-|-------x--2----2--2----|
--0----x--x------------------|--0----x--0----0--0----|
----------x------------------|-----------------------|


                                                      
--------------------------|--------------------------|
--------------------------|--------------------------|
--------------------------|--------------------------|
--------------------------|--------------------------|
--7--7--7--7--7--7--7--7--|--7--7--7--7--7--7--7--7--|
--0--0--0--0--0--0--0--0--|--0--0--0--0--0--0--0--0--|


                                                     
--------------------------|-------------------------|
--------------------------|-------------------------|
--------------------------|-------------------------|
--------------------------|--------------------7/---|
--7--7--7--7--7--7--7--7--|--7--7--7--7--7--7--7/---|
--0--0--0--0--0--0--0--0--|--0--0--0--0--0--0-------|


                                                                              
--------2-----3h2-0--------|-------------------|-----------------------------|
--------3------------3--3--|-------------------|-----------------------------|
--2--2-----2------------2--|-------------------|-----------------2-----2-----|
--0------------------------|--5----------------|--2----x--2--2h5---2h5---2h5-|
---------------------------|--3----------------|--0----x--x------------------|
---------------------------|-------------------|----------x------------------|


                                                                              
-----------------------|--------------------------|--------------------------|
-----------------------|--------------------------|--------------------------|
--2----x--2----2-------|--------------------------|--------------------------|
-------x--2----2--2----|--------------------------|--------------------------|
-------x---------------|--7--7--7--7--7--7--7--7--|--7--7--7--7--7--7--7--7--|
-----------------------|--0--0--0--0--0--0--0--0--|--0--0--0--0--0--0--0--0--|


                                                                               
--------------------------|-------------------------|----------2-------3h2-0--|
--------------------------|-------------------------|----------3--------------|
--------------------------|-------------------------|--2----2-------2---------|
--------------------------|--------------------7/---|--0----------------------|
--7--7--7--7--7--7--7--7--|--7--7--7--7--7--7--7/---|-------------------------|
--0--0--0--0--0--0--0--0--|--0--0--0--0--0--0-------|-------------------------|


                                                                          
-------------------|-----------------------------|-----------------------|
-------------------|-----------------------------|-----------------------|
-------------------|-----------------2-----2-----|--2----x--2------2/-9--|
--5----------------|--2----x--2--2h5---2h5---2h5-|-------x--2------2/-9--|
--3----------------|--0----x--x------------------|-------x---------------|
-------------------|----------x------------------|-----------------------|


                                                          
----------------------------|----------------------------|
----------------------------|----------------------------|
--------------14r--12-14b---|--------------14r--12-14b---|
----------------------------|----------------------------|
----------------------------|----------------------------|
--0---0-0--0----------------|--0---0-0--0----------------|


                                                              
------------------------------|------------------------------|
---------------8--7--8--7h8h7-|------------------------------|
------------7-----------------|--9-7-6---6-7-9-6-7----12/-x--|
--------7-9-------------------|--------9---------------------|
------------------------------|------------------------------|
--0---0-----------------------|------------------------------|


                                                                         
-------------------|----------------------|-----------------------------|
--3----------------|---------------15/-x--|-----------------------------|
--2----------------|--7b------------------|-----------------2-----2-----|
--0----------------|----------------------|--2----x--2--2h5---2h5---2h5-|
-------------------|----------------------|--0----x--x------------------|
-------------------|----------------------|----------x------------------|


                                                   
----------------------|---------------------------|
----------------------|---------------------------|
--2----x--2----2------|---------------------------|
-------x--2----2------|--------------6/-9--9-11---|
-------x--0----0------|----------7-9--------------|
----------------------|--0----9-------------------|


                                                                          
--------------------------------|----------------------------------------|
-----------------12----12-------|--12-12---12-12-12--12-12-12--12-12-12--|
--9-11--11/9-----11/13----------|--11/13---11/13-----11/13-----11/13-----|
-------------11-----------------|----------------------------------------|
--------------------------------|----------------------------------------|
--------------------------------|----------------------------------------|


                                                                         
---------------------------------|--------------------------------------|
---------------------------------|--------------------------------------|
--13~-------12h14h12-----12--14--|--14b-------12h14h12-11---------------|
---------------------14----------|-------------------------14--12h14h12-|
---------------------------------|--------------------------------------|
---------------------------------|--------------------------------------|


                                                     
----------------------------------------------------|
----------------------------------------------------|
----------------------------------------------------|
--11--12--11h12h11----------------11-12h14h12-11-12-|
-------------------14-12-11-12-14-------------------|
----------------------------------------------------|


                                                   
--------------------------------------------------|
--------------------------------------------------|
--------------------------------------------------|
--14-14-14-14-14-14-14-14-14-14-14-14-14-14-14-12-|
--------------------------------------------------|
--------------------------------------------------|


                                                
-----------------------------------------------|
-----------------------------------------------|
-----------------------------------------------|
--14-14-14-14-14-14-14-14-14-14-14-14-14-14-x--|
-----------------------------------------------|
-----------------------------------------------|


                                                                               
--------12----------12--------------|--------12-------------------------------|
-----12----12----12----12-15b-------|-----12----12-15b---x--------------------|
--14b---------14b-------------------|--14b---------------x--14-12-11----11-12-|
------------------------------------|--------------------x-----------14-------|
------------------------------------|-----------------------------------------|
------------------------------------|-----------------------------------------|


                                                       
------------------------------------------------------|
------------------------------------------------------|
--14-12-11h12h11-------------11-12-11h12h11----12-14--|
-----------------12-11-12-14----------------14--------|
------------------------------------------------------|
------------------------------------------------------|


                                       
--------------------------------------|
--------------------------------------|
--14b-------12-14-x-14-12-14-12-12-14-|
--------------------------------------|
--------------------------------------|
--------------------------------------|


                                                                                
--14b14b14b14b14b14b14b---14b-14b14b14b14b14b14b14b14b14b14b14b14b14b14b14b14b14


                                   
----------------------------------|
----------------------------------|
--14b-----12-14-12-11-12-14~------|
----------------------------------|
----------------------------------|
----------------------------------|


                                                  
------------------------------------------12-----|
---------------------------------------------15b-|
--11h12h11----------------11-12-11-12-14b--------|
-----------14-12-11-12-14------------------------|
-------------------------------------------------|
-------------------------------------------------|


                                                                   
---------------------------------------|--------------------------|
------14-15-14-12-14-12--15--12--15~---|--15~---15~---15~---15~---|
---------------------------------------|--------------------------|
---------------------------------------|--------------------------|
---------------------------------------|--------------------------|
---------------------------------------|--------------------------|


                                                                    
--------------------12----|----------------------|----------12/-x--|
--12~---12~---15~---------|--12~---12~-----------|----------12/-x--|
--------------------------|----------------------|-----------------|
--------------------------|----------------------|-----------------|
--------------------------|----------------------|-----------------|
--------------------------|----------------------|-----------------|


                                                                           
-------------------|------------------------|-----------------------------|
--3----------------|------------------------|-----------------------------|
--2----------------|------------------------|-----------------2-----2-----|
--0----------------|-----------x------------|--2----x--2--2h5---2h5---2h5-|
-------------------|--3--2--0--x------------|--0----x--x------------------|
-------------------|-------------3-3--------|----------x------------------|


                                                                           
---------------------|-------------------------|--------------------------|
---------------------|-------------------------|--------------------------|
--2------------------|--2----------2--2--------|--2--------x--2--2--------|
-------x--------x----|--5----------5--2h4h2----|--4--------x--4--2h4-2----|
-------x--------x----|--0-------------------5--|--0--------x-----------5--|
---------------------|-------------------------|--------------------------|


                                                                      
-------------------|----------------------|--------------------------|
-------------------|----------------------|--------------------------|
--2----------------|---------------2/7/x--|--2--------x--2--2--------|
--2----------------|---------------2/7/x--|--5--------x--5--2h4h2----|
--0----------------|----------------------|--0--------x-----------5--|
-------------------|--3-------------------|--------------------------|


                                                                  
--------------------------|-------------------|------------------|
--------------------------|-------------------|------------------|
--2--------x--2--2--------|--2----------------|------------------|
--4--------x--4--2h4-2----|--2----------------|------------------|
--0--------x-----------5--|--0----------------|------------------|
--------------------------|-------------------|------------------|


                          
-------------------|----||
-------------------|----||
--2----------------|----||
--2----------------|----||
--0----------------|----||
-------------------|----||
            
Submit corrections


        Used To Be lessons Hard to play? Try these video lessons and learn fast Used To Be lessons
        
↑ Back to top | Tablatures and chords for acoustic guitar and electric guitar, ukulele, drums are parodies/interpretations of the original songs. You may use it for private study, scholarship, research or language learning purposes only