» » »

Rory Gallagher - Slummin Angel Tabs

Artists:  A B C D E F G H I J K L M N O P Q R S T U V W X Y Z # 

Slummin Angel Tabs

(ver. 1) Click to play this song!
Rory Gallagher
 Rating:
4/5 (4 votes)

 Slummin Angel lessons Tabs too difficult? Try these video lessons and learn fast
 
                Intro
        1                                                 
E||--------2-----------3-----|--------2-----------3-----|
B||-----3-----3--0--3-----3--|--0--3-----3--0--3-----3--|
G||--4-----------------------|--------------------------|
D||--------------------------|--------------------------|
A||--------------------------|--------------------------|
E||--------------------------|--------------------------|

3
                                                        Verse                        
--------2-----------3-----|--------2-----------3-----|-------------------------|
--0--3-----3--0--3-----3--|--0--3-----3--0--3-----3--|-------------------------|
--------------------------|--------------------------|-------------------------|
--------------------------|--------------------------|--4----4----4--4--4--x-x-|
--------------------------|--------------------------|--2----2----2--2--2--x-x-|
--------------------------|--------------------------|-------------------------|


 6                                                                             
--------------------------|------------------------|-------------------------|
--------------------------|------------------------|-------------------------|
--------------------------|------------------------|-------------------------|
--7----7--x-x-2----2--x-x-|--4----4----4-4-4--4----|--4----4----4--4--4--x-x-|
--5----5--x-x-0----0--x-x-|--2----2----2-2-2--2----|--2----2----2--2--2--x-x-|
--------------------------|------------------------|-------------------------|

9
                                                                             
-------------------------|--------------------------|-----------------------|
-------------------------|--------------------------|-----------------------|
-------------------------|--------------------------|-----------------------|
--4----4----4--4--4--x-x-|--7----7--x-x-2----2--x-x-|--4----4----4--4--4----|
--2----2----2--2--2--x-x-|--5----5--x-x-0----0--x-x-|--2----2----2--2--2----|
-------------------------|--------------------------|-----------------------|

12
                                                      
---------------------------|-------------------------|
---------------------------|-------------------------|
---------------------------|-------------------------|
--4----4---4-4-4-4--4--x-x-|--4----4----4--4--4--x-x-|
--2----2---2-2-2-2--2--x-x-|--2----2----2--2--2--x-x-|
---------------------------|-------------------------|


14                                                                           
--------------------------|------------------------|----------------------|
--------------------------|------------------------|----------------------|
--------------------------|------------------------|----------------------|
--7----7--x-x-2----2--x-x-|--4----4----4--4--4--4--|------4----4--4--4----|
--5----5--x-x-0----0--x-x-|--2----2----2--2--2--2--|------2----2--2--2----|
--------------------------|------------------------|----------------------|

17
                                                                              
-------------------------|--------------------------|------------------------|
-------------------------|--------------------------|------------------------|
-------------------------|--------------------------|------------------------|
--4----4----4--4--4--x-x-|--7----7--x-x-2----2--x-x-|------------------------|
--2----2----2--2--2--x-x-|--5----5--x-x-0----0--x-x-|--5----5----5--5--5--4--|
-------------------------|--------------------------|--3----3----3--3--3--2--|


 20                                                                              
--------------------------|-------------------------|-------------------------|
--------------------------|-------------------------|-------------------------|
--------------------------|-------------------------|--4----------------------|
--------------------------|--4----4----4--4--4--x-x-|--4----4----4--4--4--x-x-|
--5--4--5--4--5--4--5--7--|--2----2----2--2--2--x-x-|--2----2----2--2--2--x-x-|
--3--2--3--2--3--2--3--5--|-------------------------|-------------------------|

23
                                                                      
-------------------|-----------------------|-------------------------|
-------------------|-----------------------|-------------------------|
-------------------|-----------------------|-------------------------|
-------------------|--2------------x-x-x-x-|--4----4----4--4--4--x-x-|
--2----------------|--0------------x-x-x-x-|--2----2----2--2--2--x-x-|
--0----------------|-----------------------|-------------------------|

26
                                                                             
--------------------------|------------------------|------------------------|
--------------------------|------------------------|----------3-------------|
--------------------------|------------------------|-------------4----2-----|
--7----7--x-x-2----2--x-x-|--4----4----4--4--4--4--|----2--4-------------4--|
--5----5--x-x-0----0--x-x-|--2----2----2--2--2--2--|------------------------|
--------------------------|------------------------|------------------------|

29
                                                                              
-------------------------|--------------------------|------------------------|
-------------------------|--------------------------|------------------------|
-------------------------|--------------------------|------------------------|
--4----4----4--4--4--x-x-|--7----7--x-x-2----2--x-x-|--4----4----4--4--4--4--|
--2----2----2--2--2--x-x-|--5----5--x-x-0----0--x-x-|--2----2----2--2--2--2--|
-------------------------|--------------------------|------------------------|

32
                                                                            
----------------------|-------------------------|--------------------------|
----------------------|-------------------------|--------------------------|
----------------------|-------------------------|--------------------------|
------4----4--4--4----|--4----4----4--4--4--x-x-|--7----7--x-x-2----2--x-x-|
------2----2--2--2----|--2----2----2--2--2--x-x-|--5----5--x-x-0----0--x-x-|
----------------------|-------------------------|--------------------------|

35
                                                                            
------------------------|--------------------------|-----------------------|
------------------------|--------------------------|-----------------------|
------------------------|--------------------------|-----------------------|
------------------------|--------------------------|--4----4----4--4--4----|
--5----5----5--5--5--4--|--5--4--5--4--5--4--5--7--|--2----2----2--2--2----|
--3----3----3--3--3--2--|--3--2--3--2--3--2--3--5--|-----------------------|


 38                                                                     
-------------------------|---------------------|---------------------|
-------------------------|---------------------|---------------------|
-------------------------|---------------------|--2------------------|
--4----4----4--4--4--x-x-|---------------------|--2--------------x-x-|
--2----2----2--2--2--x-x-|--2----2----2--------|--0--------------x-x-|
-------------------------|--0----0----0--------|---------------------|

41
                                                                              
-------------------------|--------------------------|------------------------|
-------------------------|--------------------------|------------------------|
-------------------------|--------------------------|------------------------|
--4----4----4--4--4--x-x-|--7----7--x-x-2----2--x-x-|--4----4----4--4--4--4--|
--2----2----2--2--2--x-x-|--5----5--x-x-0----0--x-x-|--2----2----2--2--2--2--|
-------------------------|--------------------------|------------------------|

44
                                                                             
-----------------------|-------------------------|--------------------------|
-----------------------|-------------------------|--------------------------|
----------2--4----2----|-------------------------|--------------------------|
----2--4---------------|--4----4----4--4--4--x-x-|--7----7--x-x-2----2--x-x-|
----0--2---------------|--2----2----2--2--2--x-x-|--5----5--x-x-0----0--x-x-|
-----------------------|-------------------------|--------------------------|

47
                                                                               
------------------------|---------------------------|-------------------------|
------------------------|---------------------------|-------------------------|
------------------------|---------------------------|-------------------------|
--4----4----4--4--4--4--|--4--4--4----4--4--4-4-4-4-|--4----4----4--4--4--x-x-|
--2----2----2--2--2--2--|--2--2--2----2--2--2-2-2-2-|--2----2----2--2--2--x-x-|
------------------------|---------------------------|-------------------------|

                                 
 50                                       
                                                                           
--------------------------|------------------------|----------------------|
--------------------------|------------------------|----------------------|
--------------------------|------------------------|----------------------|
--7----7--x-x-2----2--x-x-|--4----4----4--4--4--4--|------4----4--4--4----|
--5----5--x-x-0----0--x-x-|--2----2----2--2--2--2--|------2----2--2--2----|
--------------------------|------------------------|----------------------|

53
                                                                              
-------------------------|--------------------------|------------------------|
-------------------------|--------------------------|------------------------|
-------------------------|--------------------------|------------------------|
--4----4----4--4--4--x-x-|--7----7--x-x-2----2--x-x-|------------------------|
--2----2----2--2--2--x-x-|--5----5--x-x-0----0--x-x-|--5----5----5--5--5--4--|
-------------------------|--------------------------|--3----3----3--3--3--2--|

56
                                                                             
--------------------------|-----------------------|-------------------------|
--------------------------|-----------------------|-------------------------|
--------------------------|-----------------------|-------------------------|
--------------------------|--4----4----4--4--4----|--4----4----4--4--4--x-x-|
--5--4--5--4--5--4--5--7--|--2----2----2--2--2----|--2----2----2--2--2--x-x-|
--3--2--3--2--3--2--3--5--|-----------------------|-------------------------|

59
                                                                      
---------------------|---------------------|-------------------------|
---------------------|---------------------|-------------------------|
---------------------|--2------------------|-------------------------|
---------------------|--2--------------x-x-|--4----4----4--4--4--x-x-|
--2----2----2--------|--0--------------x-x-|--2----2----2--2--2--x-x-|
--0----0----0--------|---------------------|-------------------------|


  62                                                                           
--------------------------|------------------------|------------------------|
--------------------------|------------------------|------------------------|
--------------------------|------------------------|------------------------|
--7----7--x-x-2----2--x-x-|--4----4----4--4--4--4--|--4----4----4--4--4--4--|
--5----5--x-x-0----0--x-x-|--2----2----2--2--2--2--|--2----2----2--2--2--2--|
--------------------------|------------------------|------------------------|

65
                                                                              
-------------------------|--------------------------|------------------------|
-------------------------|--------------------------|------------------------|
-------------------------|--------------------------|------------------------|
--4----4----4--4--4--x-x-|--7----7--x-x-2----2--x-x-|--4----4----4--4--4--4--|
--2----2----2--2--2--x-x-|--5----5--x-x-0----0--x-x-|--2----2----2--2--2--2--|
-------------------------|--------------------------|------------------------|

69
                                                       
---------------------------|--------------------------|
---------------------------|--------------------------|
---------------------------|--------------------------|
--4--4--4----4--4--4-4-4-4-|--9--9--9--9--9--9--9--9--|
--2--2--2----2--2--2-2-2-2-|--7--7--7--7--7--7--7--7--|
---------------------------|--------------------------|

71
                                                       
--------------------------|---------------------------|
--------------------------|---------------------------|
--------------------------|---------------------------|
--9--9--9--9--9--9--9--9--|--4--4--4----4--4--4-4-4-4-|
--7--7--7--7--7--7--7--7--|--2--2--2----2--2--2-2-2-2-|
--------------------------|---------------------------|

73
                                                       
---------------------------|--------------------------|
---------------------------|--------------------------|
---------------------------|--------------------------|
--4--4--4----4--4--4-4-4-4-|--9--9--9--9--9--9--9--9--|
--2--2--2----2--2--2-2-2-2-|--7--7--7--7--7--7--7--7--|
---------------------------|--------------------------|

75
                                                                          
--------------------------|---------------------------|------------------|
--------------------------|---------------------------|------------------|
--------------------------|---------------------------|------------------|
--9--9--9--9--9--9--9--9--|--2--2--2----2--2--2-2-2-2-|------------------|
--7--7--7--7--7--7--7--7--|--0--0--0----0--0--0-0-0-0-|------------------|
--------------------------|---------------------------|------------------|


 78                                                                             
-------------------------|--------------------------|------------------------|
-------------------------|--------------------------|------------------------|
-------------------------|--------------------------|------------------------|
--4----4----4--4--4--x-x-|--7----7--x-x-2----2--x-x-|--4----4----4--4--4--4--|
--2----2----2--2--2--x-x-|--5----5--x-x-0----0--x-x-|--2----2----2--2--2--2--|
-------------------------|--------------------------|------------------------|

81
                                                                              
------------------------|-------------------------|--------------------------|
----------3-------------|-------------------------|--------------------------|
-------------4----2-----|-------------------------|--------------------------|
----2--4-------------4--|--4----4----4--4--4--x-x-|--7----7--x-x-2----2--x-x-|
------------------------|--2----2----2--2--2--x-x-|--5----5--x-x-0----0--x-x-|
------------------------|-------------------------|--------------------------|

84
                                                                            
------------------------|--------------------------|-----------------------|
------------------------|--------------------------|-----------------------|
------------------------|--------------------------|-----------------------|
------------------------|--------------------------|--4----4----4--4--4----|
--5----5----5--5--5--4--|--5--4--5--4--5--4--5--7--|--2----2----2--2--2----|
--3----3----3--3--3--2--|--3--2--3--2--3--2--3--5--|-----------------------|


  87                                                                    
------------------------|----------------------|---------------------|
--3---------------------|----------------------|---------------------|
--4---------------------|----------------------|--2------------------|
--4--------4--4--4--x-x-|----------------------|--2--------------x-x-|
--2--------2--2--2--x-x-|--2----2----2--2------|--0--------------x-x-|
------------------------|--0----0----0--0------|---------------------|

90
                                                                              
-------------------------|--------------------------|------------------------|
-------------------------|--------------------------|------------------------|
-------------------------|--------------------------|------------------------|
--4----4----4--4--4--x-x-|--7----7--x-x-2----2--x-x-|--4----4----4--4--4--4--|
--2----2----2--2--2--x-x-|--5----5--x-x-0----0--x-x-|--2----2----2--2--2--2--|
-------------------------|--------------------------|------------------------|

93
                                                                               
-------------------------|-------------------------|--------------------------|
----------3--------------|-------------------------|--------------------------|
----------x--4--2--------|-------------------------|--------------------------|
----2--4-----x--x--2--0--|--4----4----4--4--4--x-x-|--7----7--x-x-2----2--x-x-|
----x--x-----------x--x--|--2----2----2--2--2--x-x-|--5----5--x-x-0----0--x-x-|
-------------------------|-------------------------|--------------------------|


 96                                                                             
-----------------------|---------------------------|-------------------------|
-----------------------|---------------------------|-------------------------|
-----------------------|---------------------------|-------------------------|
--4----4----4--4--4----|--4----4---4-4-4-4--4--x-x-|--4----4----4--4--4--x-x-|
--2----2----2--2--2----|--2----2---2-2-2-2--2--x-x-|--2----2----2--2--2--x-x-|
-----------------------|---------------------------|-------------------------|


 99                                                                              
--------------------------|-----------------------|---------------------------|
--------------------------|-----------------------|---------------------------|
--------------------------|-----------------------|---------------------------|
--7----7--x-x-2----2--x-x-|--4----4----4--4--4----|--4----4---4-4-4-4--4--x-x-|
--5----5--x-x-0----0--x-x-|--2----2----2--2--2----|--2----2---2-2-2-2--2--x-x-|
--------------------------|-----------------------|---------------------------|


  102                                                                           
-------------------------|--------------------------|-----------------------|
-------------------------|--------------------------|-----------------------|
-------------------------|--------------------------|-----------------------|
--4----4----4--4--4--x-x-|--7----7--x-x-2----2--x-x-|--4----4----4--4--4----|
--2----2----2--2--2--x-x-|--5----5--x-x-0----0--x-x-|--2----2----2--2--2----|
-------------------------|--------------------------|-----------------------|

105
                                                      
---------------------------|-------------------------|
---------------------------|-------------------------|
---------------------------|-------------------------|
--4----4---4-4-4-4--4--x-x-|--4----4----4--4--4--x-x-|
--2----2---2-2-2-2--2--x-x-|--2----2----2--2--2--x-x-|
---------------------------|-------------------------|


  107                                                                             
--------------------------|-----------------------|---------------------------|
--------------------------|-----------------------|---------------------------|
--------------------------|-----------------------|---------------------------|
--7----7--x-x-2----2--x-x-|--4----4----4--4--4----|--4----4---4-4-4-4--4--x-x-|
--5----5--x-x-0----0--x-x-|--2----2----2--2--2----|--2----2---2-2-2-2--2--x-x-|
--------------------------|-----------------------|---------------------------|


  110                                                                        
-----------------------|--------------------------|----------------------|
-----------------------|--------------------------|--7--5-----5----------|
-----------------------|--------------------------|--------7-----7--6--7-|
--4----4----4--4--4----|--7----7--x-x-2----2--x-x-|----------------------|
--2----2----2--2--2----|--5----5--x-x-0----0--x-x-|----------------------|
-----------------------|--------------------------|----------------------|


 113                                                                    ENd.        
------------------|-----------------------|--7------------------------------|
------------------|----7-15---------------|-----10-7------------------------|
------------------|--7--------------------|----------9-10-9-7---------------|
------------------|-----------------------|-------------------9-7-----------|
------------------|-----------------------|-----------------------7/5-------|
------------------|-----------------------|---------------------------7-----|


  Solos                                     
                             49                        
------|------|------|------|------------------------|
------|------|------|------|----------------12--14--|
------|------|------|------|--14b-------------------|
------|------|------|------|------------------------|
------|------|------|------|------------------------|
------|------|------|------|------------------------|


 50                                                                      
-----------------------------------------|----------------------------|
--12h14h12-----12------------------------|----------------------------|
-----------14------14--11h14h11---9b-11--|--9r-7---7-9-7---7-7--------|
-----------------------------------------|-------9-------9-----9------|
-----------------------------------------|----------------------------|
-----------------------------------------|----------------------------|

52
                                                    
------------------|--------------------------------|
------------------|--------------------------------|
------------------|--------------------------------|
------------------|---------9--12--14r--12-14--12--|
------------------|--9--12-------------------------|
------------------|--------------------------------|


 54                                                       
----------------------------------|--------------------|
----------------------------------|--------------------|
----------------------------------|--------------------|
--14r--12-14--12--14r--12-14--12--|--14b---------------|
----------------------------------|--------------------|
----------------------------------|--------------------|
56

                                                                     
--------------------------|-----------------------------------------|
------------------12--14--|--12h-14h12-----12--14--15--14--12-14-12-|
--11--14~-----------------|------------14---------------------------|
--------------------------|-----------------------------------------|
--------------------------|-----------------------------------------|
--------------------------|-----------------------------------------|

58
                                                                
----------------------------------|----------------------------|
--12--14--12----------------------|----------------------------|
--------------14------------------|----------------------------|
------------------14r--12-14--12--|--14b---14b---14r-----14-12-|
----------------------------------|----------------------------|
----------------------------------|----------------------------|

60
                                                               
-------------------------------|------------------------------|
-------------------------------|------------------------------|
-------------------------------|------------------11--14--11--|
--14~---------12-14-12---------|----------12--14--------------|
-----------------------14--12--|--14--------------------------|
-------------------------------|------------------------------|


  62                                                        
------------------------------|--------------------------|
------------------------------|--------------------------|
--14~-------11--14h11-----11--|--------------------------|
----------------------14------|--14--11h12h11b-----------|
------------------------------|--------------------------|
------------------------------|--------------------------|

64
                                                                    
------------------------------|------------------------------------|
------------------------------|------------------------------------|
------------------------------|------------------------------------|
------------------------------|------------------------------------|
--------14--12-14-----12--14--|--14--12------12--------------------|
------------------14----------|----------14------14-12-10--12--14--|


  66                                                            
----------------------------------|--------------------------|
----------------------------------|--------------------------|
------------------------------14--|--14b---14b---14b---14b---|
----------------------12--14------|--------------------------|
--------------12--14--------------|--------------------------|
--10--12--14----------------------|--------------------------|


  68                                                                         
--------------------|--------------------------|--------------------------|
--------------------|--------------------------|--------------------------|
--14b---------------|--------------------------|--------------------------|
--------------------|--9--7--9--7--9--7--9--7--|--9--7--9--7--9--7--9--7--|
--------------------|--------------------------|--------------------------|
--------------------|--------------------------|--------------------------|

71
                                                                           
------------------|----------------------------|--------------------------|
------------------|----------------------------|--------------------------|
------------------|----------------------------|--------------------------|
------------------|----7-9-7----------------7--|--9--7--9--7--9--7--9--7--|
------------------|----------9--7--5-----7-----|--------------------------|
------------------|-------------------7--------|--------------------------|


  74                                                                        
--------------------------|-------------------|-------------------|------|
--------------------------|-------------------|-------------------|------|
--------------------------|-------------------|-------------------|------|
--9--7--9--7--9--7--9--7--|-------------------|--7/---------------|------|
--------------------------|--7----------------|-------------------|------|
--------------------------|--5----------------|-------------------|------|


  78                                                                    
------|------|------|------|------|------|------|------|------|------|
------|------|------|------|------|------|------|------|------|------|
------|------|------|------|------|------|------|------|------|------|
------|------|------|------|------|------|------|------|------|------|
------|------|------|------|------|------|------|------|------|------|
------|------|------|------|------|------|------|------|------|------|


 88                                                                
------------------------|--------------------|------------------|
------------------------|--------------------|------------------|
------------------------|--------------------|------------------|
--14b-------------14-12-|--------------------|------------------|
------------------------|--14----------------|------------------|
------------------------|--------------------|------------------|


 91                                       
------------------|------|------|------|
------------------|------|------|------|
------------------|------|------|------|
------------------|------|------|------|
------------------|------|------|------|
------------------|------|------|------|

95
                                                                                
----------------------------------------------|-------------------------|------|
----------10h12h10h12h10h12h10h12h10h12h10h12h|--10-12-10---------------|------|
----------------------------------------------|-------------------------|------|
----------------------------------------------|-------------------------|------|
----------------------------------------------|-------------------------|------|
----------------------------------------------|-------------------------|------|


 98                                                  
----------------------|--------------------|------|
----------------------|--12~---------------|------|
----------------------|--------------------|------|
----------14r------12-|--------------------|------|
----------------------|--------------------|------|
----------------------|--------------------|------|

101
                                                                           
--12h15h12h15h12h15h12h15h12h15h12h15h12h15h12h15h12h15h12h15h12h15h12h15h|


  102                                                                       
-----------------------------------------|------------------------------|
--12h15h12h15h12h15h12h15h12-15b---------|--12--------------------------|
-----------------------------------------|------14--11------------------|
-----------------------------------------|--------------14r--12-14~-----|
-----------------------------------------|------------------------------|
-----------------------------------------|------------------------------|


104                                                      
--------------------|--------------------------------|
--------------------|--------------------------------|
--------------------|--------------------------------|
--------------------|--12----------------------------|
----------------14--|------14--12--14----12----------|
--------------------|------------------------12--10--|

106
                                                                          
----------------------------|-------------------|------------------------|
----------------------------|-------------------|------------------------|
----------------------------|-------------------|------------------------|
----------------------7--9--|--9----------------|--14b-------------------|
--7------7------7/-9--------|-------------------|----------------14--12--|
-----10-----10--------------|-------------------|------------------------|


  110                                                               
------------------------|---------------------------------------|
----------------12--14--|--12-14-12-----12----------------------|
--14b-------------------|-----------14------14------------------|
------------------------|-----------------------14r--12-14--12--|
------------------------|---------------------------------------|
------------------------|---------------------------------------|

112
                                                                                
---------------------|-------------------|------------------|------------------|
---------------------|--8----------------|------------------|------------------|
-------------------6-|--7----------------|------------------|------------------|
--14b----------------|-------------------|------------------|------------------|
---------------------|-------------------|------------------|------------------|
---------------------|-------------------|------------------|------------------|
            
Submit corrections


        Slummin Angel lessons Hard to play? Try these video lessons and learn fast Slummin Angel lessons
        
↑ Back to top | Tablatures and chords for acoustic guitar and electric guitar, ukulele, drums are parodies/interpretations of the original songs. You may use it for private study, scholarship, research or language learning purposes only