» » »

Rory Gallagher - Moonchild Tabs

Artists:  A B C D E F G H I J K L M N O P Q R S T U V W X Y Z # 

Moonchild Tabs

(ver. 1) Click to play this song!
Rory Gallagher
 Rating:
4.3/5 (19 votes)

 Moonchild  lessons Tabs too difficult? Try these video lessons and learn fast
 
                                                        
[Intro]

e|---------------------------------------------------------------------------|
B|-------1-------3-------5~-----6-6------------------------------------------|
G|-------2-------4-------5------7-7------------------------------------------|
D|-------2-------0-------0------0-0------------------------------------------|
A|---0-------0-------0------0------------------------------------------------| x4
E|---------------------------------------------------------------------------|
 
e|---------------------------------------------------------------------------|
B|---------------------------------------------------------------------------|
G|---------------------7b----17t----7p5--------------------------------------|
D|-------------2-/-5---------------------------------------------------------|
A|----2-3-/-5----------------------------------------------------------------|
E|--3------------------------------------------------------------------------|
 
e|---------------------------------------------------------------------------|
B|-------1-------3-------5~-----6-6------------------------------------------|
G|-------2-------4-------5------7-7------------------------------------------|
D|-------2-------0-------0------0-0------------------------------------------|
A|---0-------0-------0------0------------------------------------------------| x2
E|---------------------------------------------------------------------------|
 
e|---------------------------------------------------------------------------|
B|-----------------------3---------------------------------------------------|
G|---1-------------------2---------------------------------------------------|
D|---2-------------------0---------------------------------------------------|
A|---2---------------3-------------------------------------------------------|
E|---0---0---1---3---1-------------------------------------------------------|
 
e|---------------------------------------------------------------------------|
B|-------1-------3-------5~-----6-6------------------------------------------|
G|-------2-------4-------5------7-7------------------------------------------|
D|-------2-------0-------0------0-0------------------------------------------|
A|---0-------0-------0------0------------------------------------------------|
E|---------------------------------------------------------------------------|
 
e|---------------------------------------------------------------------------|
B|-------1-------3-------5~--------------------------------------------------|
G|-------2-------4-------5---------------------------------------------------|
D|-------2-------0-------0---------------------------------------------------|
A|---0-------0-------0-------------------------------------------------------|
E|---------------------------------------------------------------------------|
 
          you are a moon child and  pretty soon child I
e|---------------------------------------------------------------------------|
B|-------1-------------------------1-----------------------------------------|
G|-------2-------------------------2-----------------------------------------|
D|-------2-------------------------2-----------------------------------------|
A|----0h3-----------------------0h3------------------------------------------|
E|---------------------------------------------------------------------------|
  
         got the feeling Im        gonna make you smile forever
e|---------------------------------------------------------------2-----------|
B|-------1-------------------------1-----------------------------2-----------|
G|-------2-------------------------2-----------------------------0-----------|
D|-------2-------------------------2-----------------------------0-----------|
A|----0h3-----------------------0h3---------------------------0h32-----------|
E|---------------------------------------------------------------3-----------|
 
                                                   If I can 
e|-------2--2--2--0-----------------2--2--2--2-------------------------------|
B|-------2--2--2--------------------2--2--2--2-------------------------------|
G|-------0--0--0--------------------0--0--0--0-------------------------------|
D|-------0--0--0--------------------0--0--0--0-------------------------------|
A|-------2--2--2--------------------2--2--2--2-------------------------------|
E|-------3--3--3--------------------3--3--3--3-------------------------------|
 
e|---------------------------------------------------------------------------|
B|-------1-------3-------5~-----6-6------------------------------------------|
G|-------2-------4-------5------7-7------------------------------------------|
D|-------2-------0-------0------0-0------------------------------------------|
A|---0-------0-------0------0------------------------------------------------| x2
E|---------------------------------------------------------------------------|
 
      Just give me a sign    and I'll show you my plan               1:02
e|---------------------------------------------------------------------------|
B|-----------------------3---------------------------------------------------|
G|---1-------------------2---------------------------------------------------|
D|---2-------------------0---------------------------------------------------|
A|---2---------------3-------------------------------------------------------|
E|---0---0---1---3---1-------------------------------------------------------|            
Submit corrections


        Moonchild  lessons Hard to play? Try these video lessons and learn fast Moonchild  lessons
        
↑ Back to top | Tablatures and chords for acoustic guitar and electric guitar, ukulele, drums are parodies/interpretations of the original songs. You may use it for private study, scholarship, research or language learning purposes only