» » »

Roosevelt - Bass

Artists:  A B C D E F G H I J K L M N O P Q R S T U V W X Y Z # 

Bass

(ver. 1) Click to play this song!
Roosevelt
 Rating:
4.4/5 (7 votes)

  lessons Tabs too difficult? Try these video lessons and learn fast
 
                [Main Riff 1]
[0:00]
G|------------8/10-6------------8/10-6---------------8/10-6------------8/10-6-|
D|----------------------------------------------------------------------------|
A|----------------------------4-----------------------------------------------|
D|-4-4--4-4-------------8-8-8-------------1-1--1-1-------------1-1-1-3--------|
Repeat until the bridge, at around 2:25

[Main Riff 2]
[3:02]
G|---------------------------------------------------------------------------------------------------|
D|---------------------------------------------------------------------------------------------------|
A|-------------------------------------4--4--4--4-4-6--6--6-6--6--6--6--6-6--6--6--6-6--8--8--8--8-8-|
D|-4--4--4-4--4--4--4--4-4--8--8--8-8----------------------------------------------------------------|
Repeat until the end            
Submit corrections


         lessons Hard to play? Try these video lessons and learn fast  lessons
        
↑ Back to top | Tablatures and chords for acoustic guitar and electric guitar, ukulele, drums are parodies/interpretations of the original songs. You may use it for private study, scholarship, research or language learning purposes only