Home » R » Ronny Inc »

Ronny Inc - Es Hangt Ein Pferdehalfter An Der Wand Tabs

Artists:  A B C D E F G H I J K L M N O P Q R S T U V W X Y Z # 

Es Hangt Ein Pferdehalfter An Der Wand Tabs

(ver. 1) Click to play this song!
Ronny Inc
                [Solo]
e|-----------0------------------------3--3--3--5--1----------5--3------------|
B|-----1--3-------1--0-----0--3--1-------------------1----1------------------|
G|--0-------------------0------------------------------2---------------------|
D|---------------------------------------------------------------------------|
A|---------------------------------------------------------------------------|
E|---------------------------------------------------------------------------|

e|--0--0--0-----0--1-----------0---------------------------------------------|
B|-----------3--------3--0----------1--1--1--0--1--3--3--1--0--1-------------|
G|--------------------------0------------------------------------------------|
D|---------------------------------------------------------------------------|
A|---------------------------------------------------------------------------|
E|---------------------------------------------------------------------------|


e|-----------0------------------------3--3--3--5--1----------5--3------------|
B|-----1--3-------1--0-----0--3--1-------------------1----1------------------|
G|--0-------------------0------------------------------2---------------------|
D|---------------------------------------------------------------------------|
A|---------------------------------------------------------------------------|
E|---------------------------------------------------------------------------|

e|--0--0--0-----0--1-----------0---------------------------------------------|
B|-----------3--------3--0----------1--1--1--0--1--3--3--1--0--1-------------|
G|--------------------------0------------------------------------------------|
D|---------------------------------------------------------------------------|
A|---------------------------------------------------------------------------|
E|---------------------------------------------------------------------------|            
Submit corrections

↑ Back to top | Tablatures and chords for acoustic guitar and electric guitar, ukulele, drums are parodies/interpretations of the original songs. You may use it for private study, scholarship, research or language learning purposes only