Home » R » Romeo Retarded »

Romeo Retarded - Push Comes To Shove Bass

Artists:  A B C D E F G H I J K L M N O P Q R S T U V W X Y Z # 

Push Comes To Shove Bass

(ver. 1) Click to play this song!
Romeo Retarded
note : '>' means 8 times

Riff 1
G:------------------------------
D:------------------------------
A:-22------------2>>--0>2>>--0>-
E:------------------3>-----3>---

Riff 2
G:----------------
D:----------------
A:-2>--0>---------
E:---3>--33332222-

Riff 3
G:---------------
D:---------------
A:-2>--0>--------
E:---3>--2-2-2-2-

Riff 4
G:--------------------------------------------------
D:--------------------------------------------------
A:-2>>---0>>----2>>---0>>-------------------------2-
E:----3>>---3>2>---3>>---3332222233322222*33322222--
(note : play after the star just the last time)

Riff 5
G:---------------------
D:---------------------
A:-2--2----0--0000-----
E:-----3--3-------2222-

Structure

Riff 1 X 1
Riff 2 X 5
Riff 3 X 1
Riff 2 X 2
Riff 4 X 1
Riff 2 X 1
Riff 3 X 1 
Riff 2 X 2
Riff 5 X 2
Riff 2 X 1
Riff 3 X 1
Riff 2 X 2
Riff 4 X 1
            
Submit corrections

↑ Back to top | Tablatures and chords for acoustic guitar and electric guitar, ukulele, drums are parodies/interpretations of the original songs. You may use it for private study, scholarship, research or language learning purposes only