Home » R » Romeo Retarded »

Romeo Retarded - First Night Stand Tabs

Artists:  A B C D E F G H I J K L M N O P Q R S T U V W X Y Z # 

First Night Stand Tabs

(ver. 1) Click to play this song!
Romeo Retarded
Band - Romeo Retarded
Song - First Night Stand
Album - Nintendo Week

e|-------------------------------------|
B|-------------------------------------|
G|-------------------------------------|
D|-------------------------------------|
A|-------------------------------------|
E|-------------------------------------|

Intro -

e|---------------------|
B|---------------------|
G|--9-9----------------|
D|--9-9--9-9--7-7-7-7--|
A|--7-7--9-9--7-7-7-7--|
E|-------7-9--5-5-5-5--|

Verse - 

e|---------------------|
B|---------------------|
G|--9-9----------------|
D|--9-9--9-9--7-7-9-9--|
A|--7-7--9-9--7-7-9-9--|
E|-------7-9--5-5-7-7--|

Pre-Chorus -

e|-------------------|
B|-------------------|
G|-------------------|
D|--7-7-7-7-9-9-9-9--|
A|--7-7-7-7-9-9-9-9--|
E|--5-5-5-5-7-7-7-7--|

Chorus - 

e|-----------------|
B|-----------------|
G|--9-9------------|
D|--9-9-11-11-9-9--|
A|--7-7-11-11-9-9--|
E|-------9--9-7-9--|

Bridge

e|--------------------|
B|--------------------|
G|--9-9-9-9-9-9-11-9--|
D|--9-9-9-9-9-9-11-9--|
A|--7-7-7-7-7-7--9-7--|
E|--------------------|

Structure -

Intro x4
Verse x4
Pre-Chorus x1
Chorus x4
Bridge x2
Verse x4
Pre-Chorus x1
Chorus x2
Bridge x2

Lyrics -

Every time I see you
I can't help it but I feel all right
Walking down the street I smile
cause I know you there by my side
You can't help it all the guys surround you
The way you walk the way you look so good
If I tell that it was alright
Would you leave and go with them tonight
You turned around and looked at me
And said that it would be all right
We went home and it was fun
And can't you see we went all night
            
Submit corrections

↑ Back to top | Tablatures and chords for acoustic guitar and electric guitar, ukulele, drums are parodies/interpretations of the original songs. You may use it for private study, scholarship, research or language learning purposes only