Home » R » Romeo Retarded »

Romeo Retarded - Blew It Away Tabs

Artists:  A B C D E F G H I J K L M N O P Q R S T U V W X Y Z # 

Blew It Away Tabs

(ver. 1) Click to play this song!
Romeo Retarded
Band - Romeo Retarded
Song - Blew It Away	
Album - Nintendo Week

Intro 1/ Chorus -

Guitar 1
e|------------------------|
B|------------------------|
G|-5-5-7-7-7-8-9-9-9-9-9--|
D|-5-5-7-7-------9-9-9-9--|
A|-3-3-5-5-------7-7-7-7--|
E|------------------------|

Guitar 2

e|-----------------|
B|-----------------|
G|-5~-7~-9~-12\11--|
D|-5~-7~-9~-12\11--|
A|-3~-5~-7~-10\-9--|
E|-----------------|

Intro 2 -

Both Guitars
e|----------------------------------------------|
B|----------------------------------------------|
G|-5-5-5-6-7-7-7-7-8-9-9-9-12-11-9-9-9-12-11-9--|
D|-5-5-------7-7-------9-9---------9-9----------|
A|-3-3-------5-5-------7-7---------7-7----------|
E|----------------------------------------------|

Verse-

Guitar 1
e|-----------------------------------|
B|-----------------------------------|
G|----------5-5-5-5---------7-7-7-7--|
D|--2-2-2-2-5-5-5-5-5-5-5-5-7-7-7-7--|
A|--2-2-2-2-3-3-3-3-5-5-5-5-5-5-5-5--|
E|--0-0-0-0---------3-3-3-3----------|

Guitar 2
e|--------------|
B|--------------|
G|--9/11/12/16--|
D|--9/11/12/16--|
A|--7/-9/10/14--|
E|--------------|

Solo -

Guitar 1 (Played Fast)
e|-0-0-0-2/3\2-0-0-5-0-0-3-0-2-2-2--0-0-0-2/3\2-0-0-5-0-0-3-0-2-2-2-|
B|------------------------------------------------------------------|

e|-7-7b-7-5-3-0-0-5-0-0-3-0-2-2-2-12-12-12-12-15-14-12-12-12-17-17-12-|
B|--------------------------------------------------------------------|

e|12-15-15-12-14-14-14-14--12-12-12-12-15-14-12-12-12-17-17-15-15-14-14-14-14|
B|---------------------------------------------------------------------------|

e|-19-19b-19-17-15-12-12-12-17-12-12-15-12-14-14-14-14-|
B|-----------------------------------------------------|

 Really Fast Picking
e|-12-12-15-14-12-12-15-14-12-12-15-14-12-12-15-14-12-12-15-14-12-12-|
B|-------------------------------------------------------------------|

e|15-1412-12-15-14-12-12-15-14-19b--19-17-15-12-12-12-17-12-12-15-12-14-14-14-14---|
B|--------------------------------17-----------------------------------------------|
 
e|-19-19b-19-17-15-12-12-12-17-12-12-15-12-14-14-14-14-12~-|
B|---------------------------------------------------------|

Guitar 2 
e|-----------------------------------|
B|-----------------------------------|
G|----------5-5-5-5---------7-7-7-7--|
D|--2-2-2-2-5-5-5-5-5-5-5-5-7-7-7-7--|
A|--2-2-2-2-3-3-3-3-5-5-5-5-5-5-5-5--|
E|--0-0-0-0---------3-3-3-3----------|

Lyrics -

I'm just starting to realize
she said with a tear in her eye
It's the same as you've always realized before
I'm glad to see you gone
I've been waiting for this day for so long
you've had your chance and now you blew it
I don't care what your thinking
I don't care like any other day
I don't care what you've been drinking'
I don't care why don't you just fade away
So what's gonna happen now
she said with fear in her eye
you won't see my face and I won't see yours
We'll both go on our separate ways
for the rest of your days
you'll know you had your chance and blew it
I don't care if you are all alone
I don't care if you have no ride home
I don't care if your moms a b**ch
I don't care, cause so are you
            
Submit corrections

↑ Back to top | Tablatures and chords for acoustic guitar and electric guitar, ukulele, drums are parodies/interpretations of the original songs. You may use it for private study, scholarship, research or language learning purposes only