Home » R » Rolo Tomassi »

Rolo Tomassi - Mutual Ruin Tabs

Artists:  A B C D E F G H I J K L M N O P Q R S T U V W X Y Z # 

Mutual Ruin Tabs

(ver. 1) Click to play this song!
Rolo Tomassi
[Section 1]
 
e|---------------------------------|
B|---------------------------------|
G|---1-2-1-2-1-2-1-2-1-2-1-2-1-2-1-|
D|-3-------------------------------|
A|---------------------------------|
E|---------------------------------|
 
e|---------------------------------|
B|---------------------------------|
G|---1-2-1-2-1-2-1-2-1-2-1-2-1-2-1-|
D|-4-------------------------------|
A|---------------------------------|
E|---------------------------------|
 
e|---------------------------------|
B|---------------------------------|
G|---------------------0-------0---|
D|---1-2-1---1-2-1---6---6---6---6-|
A|-3-------4-------6-------7-------|
E|---------------------------------|
 
e|---------------------------------|
B|---------------------------------|
G|---------------------------------|
D|---1-2-1-2-1-2-1-2-1-2-1-2-1-2-1-|
A|-4-------------------------------|
E|---------------------------------|
 
e|---------------------------------|
B|---------------------------------|
G|---------------------------------|
D|---1-2-1-2-1-2-1-2-1-2-1-2-1-2-1-|
A|-3-------------------------------|
E|---------------------------------|
 
e|---------------------------------|
B|---------------------------------|
G|---------------------------------|
D|---1-2-1-2-1-2-1-2-1-2-1-2-1-2-1-|
A|-4-------------------------------|
E|---------------------------------|
 
e|---------------------------------|
B|---------------------------------|
G|---------------------0-------0---|
D|---1-2-1---1-2-1---6---6---6---6-|
A|-3-------4-------6-------7-------|
E|---------------------------------|
 
 
[Section 2]
 
The first note is slid into
e|----------------------|------------------|
B|----------------------|------------------|
G|-/7---7-6---4-6-------|----------------4-|
D|----4-----4-----7-6-4-|-3---4-6--6---7---|
A|----------------------|---4--------4-----|
E|----------------------|------------------|
 
Repeat x 2
 
 
[Section 3]
 
e|-------------------------|-------------------------|
B|-------------------------|-------------------------|
G|-7-----7-7---7-----7-7---|-6-----6-6---6-----6-6---|
D|----4------4----4------4-|----4------4----4------4-|
A|-------------------------|-------------------------|
E|-------------------------|-------------------------|
 
e|-------------------------|-------------------------|
B|-------------------------|-------------------------|
G|-------------------------|-------------------------|
D|-7--4--7-7-4-7--4--7-7-4-|-6--3--6-6-3-6--3--6-6-3-|
A|-------------------------|-------------------------|
E|-------------------------|-------------------------|
 
Repeat x 2
 
 
Order:
 
[1], [2], [3], [2], [1], [2], [3], [2], [1]
            
Submit corrections

↑ Back to top | Tablatures and chords for acoustic guitar and electric guitar, ukulele, drums are parodies/interpretations of the original songs. You may use it for private study, scholarship, research or language learning purposes only