» » »

Rollins Band - What's The Matter Man Bass

Artists:  A B C D E F G H I J K L M N O P Q R S T U V W X Y Z # 

What's The Matter Man Bass

(ver. 1) Click to play this song!
Rollins Band
 Rating:
4/5 (4 votes)
                Rollins Band - Whats the matter man?


Intro (0:08)
G|---------------------|
D|-4---4----6------/---|
A|---------------------|
E|---------------------|


Main Riff
G|-------------------------------------------------------|
D|--------------------------------4---4------------------|
A|-6-6-4-6---6-4-6---6-4-6---6-6---------4---4-4---4-4-4-|
E|-------------------------------------------------------|

G|-------------------------------------------------------|
D|--------------------------------4---4--6---6-6---6-6-6-|
A|-6-6-4-6---6-4-6---6-4-6---6-6-------------------------|
E|-------------------------------------------------------|


Chorus ("What's the matter man?!..")
G|----------|--------|----------|---------|
D|----------|--------|----------|---------|
A|-2--2-----|--------|-2--2-----|-6-------|
E|----------|-4------|----------|---------|

G|----------|--------|----------|---------|
D|----------|--------|----------|---------|
A|-2--2-----|--------|-2--2-----|-4-----/-|
E|----------|-4------|----------|---------|


Bridge:
G|----------------------------------------------------------|
D|----------------------------------------------------------|
A|----------------------------------------------------------|
E|-6-6-6-4-6-6-6-4-6-6-6-4-6-6-6-4-6-6-6-4-6-6-6-4-6-6-6-4--| etc


Play main riff over the guitar solo


Outro
G|---------------------------------------------------------|
D|---------------------------------------------------------|
A|-6-6-6-4-6-6-6-4-6-6-6-4-6-6-6-4-6-6-6-4-6-6-6-4-6-6-6-4-| etc
E|---------------------------------------------------------|
finishing on A|-6--|
            
Submit corrections

↑ Back to top | Tablatures and chords for acoustic guitar and electric guitar, ukulele, drums are parodies/interpretations of the original songs. You may use it for private study, scholarship, research or language learning purposes only