» » »

Roger Waters - Sea Shell And Stone Tabs

Artists:  A B C D E F G H I J K L M N O P Q R S T U V W X Y Z # 

Sea Shell And Stone Tabs

(ver. 1) Click to play this song!
Roger Waters
 Rating:
4/5 (4 votes)

 Sea Shell And Stone lessons Tabs too difficult? Try these video lessons and learn fast
 
                
   GUITAR TAB for "Sea Shell And Stone" (Roger Waters - Music From The Body)



Intro

  Dmaj7           Dmaj7           Dmaj7           Dmaj7
E|2------2-------|2------2-------|2-----2--------|2------2-------|
B|--2------2-----|--2------2-----|--2-----2------|--2------2-----|
G|----2------2---|----2------2---|----2-----2----|----2------2---|
D|0--------------|0------0-------|0--------------|0------0-4-----|
A|---------------|---------4--0--|---------------|---------------|
E|---------------|---------------|---------------|---------------|



Central Part

  Sea             shell      and  stone
  Dmaj7           Dmaj7           G               G
E|2------2-------|2------2-------|3------3-------|3------3-------|
B|--2------2-----|--2------2-----|--0------0-----|--0------0-----|
G|----2------2---|----2------2---|----0------0---|----0------0---|
D|0--------------|0--------------|---------------|-------0-------|
A|---------------|---------------|---------------|2--------------|
E|---------------|---------------|3----------3---|---------------|

  Surf-rushes-forward-to-feel-the-shingle-with-fingers-of-foam
  E               E               A               A
E|0------0-------|0------0-------|---------------|---------------|
B|--0------0-----|--0------0-----|2------2-------|2------2-------|
G|----1------1---|----1------1---|--2------2-----|--2------2-----|
D|---------------|---------------|----2------2---|----2------2---|
A|---------------|---------------|0--------------|0--------------|
E|0--------------|0--------------|---------------|---------------|

  Search for the  gold            Over-the-landscape-the-mouth-of-a-lifeline-un..
  Dmaj7           G               E               E  
E|2------2-------|3------3-------|0------0-------|0------0-------|
B|--2------2-----|--0------0-----|--0------0-----|--0------0-----|
G|----2------2---|----0------0---|----1------1---|----1------1---|
D|0--------------|---------------|---------------|---------------|
A|---------------|---------------|---------------|---------------|
E|---------------|3--------------|0--------------|0--------------|

..folds
  G               G
E|---------------|---------------|
B|2------2-------|2------2-------|
G|--2------2-----|--2------2-----|
D|----2------2---|----2------2---|
A|0--------------|0--------------|
E|---------------|---------------|

  Smooth     and  round      and  brown
  Dmaj7           Dmaj7           G               G
E|2------2-------|2------2-------|3------3-------|3------3-------|
B|--2------2-----|--2------2-----|--0------0-----|--0------0-----|
G|----2------2---|----2------2---|----0------0---|----0------0---|
D|0--------------|0--------------|---------------|---------------|
A|---------------|---------------|---------------|---------------|
E|---------------|---------------|3--------------|2--------------|

  See-how-the-sunshine-creeps-over-thistle-and-down
  E               E               A               A
E|0------0-------|0------0-------|---------------|---------------|
B|--0------0-----|--0------0-----|2------2-------|2------2-------|
G|----1------1---|----1------1---|--2------2-----|--2------2-----|
D|---------------|---------------|----2------2---|----2------2---|
A|---------------|---------------|0--------------|0--------------|
E|0--------------|0--------------|---------------|---------------|

  Hillock-and-hump-hummock-and-clump-and-mound
  Dmaj7           Dmaj7           G               G
E|2------2-------|2------2-------|3------3-------|3------3-------|
B|--2------2-----|--2------2-----|--0------0-----|--0------0-----|
G|----2------2---|----2------2---|----0------0---|----0------0---|
D|0--------------|0--------------|---------------|---------------|
A|---------------|---------------|---------------|---------------|
E|---------------|---------------|3--------------|2--------------|

  I-feel-a-lump-see-a-bump-hear-a-bulboba-sound
  E               E               A               A
E|0------0-------|0------0-------|---------------|---------------|
B|--0------0-----|--0------0-----|2------2-------|2------2-------|
G|----1------1---|----1------1---|--2------2-----|--2------2-----|
D|---------------|---------------|----2------2---|----2------2---|
A|---------------|---------------|0--------------|0--------------|
E|0--------------|0--------------|---------------|---------------|

  Hollow-and-valley-and-shadow-and-dimpleand-hill
  Dmaj7           Dmaj7           G               G
E|2------2-------|2------2-------|3------3-------|3------3-------|
B|--2------2-----|--2------2-----|--0------0-----|--0------0-----|
G|----2------2---|----2------2---|----0------0---|----0------0---|
D|0--------------|0--------------|---------------|---------------|
A|---------------|---------------|---------------|---------------|
E|---------------|---------------|3--------------|2------3-2-0---|

  Glisten-and-glimmer-and-shimmer-and-sparkle-and-still
  Dmaj7           Dmaj7           G               G
E|2------2-------|2------2-------|3------3-------|3------3-------|
B|--2------2-----|--2------2-----|--0------0-----|--0------0-----|
G|----2------2---|----2------2---|----0------0---|----0------0---|
D|0--------------|0--------------|---------------|---------------|
A|---------------|---------------|---------------|---------------|
E|---------------|---------------|3--------------|2------3-2-0---|

  Sunlight-is-warming-the-land-before-your-eyes...         and-the
  Dmaj7           Dmaj7           G               A
E|2------2-------|2------2-------|3------3-------|---------------|
B|--2------2-----|--2------2-----|--0------0-----|2------2-------|
G|----2------2---|----2------2---|----0------0---|--2------2-----|
D|0--------------|0--------------|---------------|----2------2---|
A|---------------|---------------|---------------|0--------------|
E|---------------|---------------|3--------------|---------------|

  sunrise             is on your  side...                  and-the
  D               D               G               G
E|2------2-------|2------2-------|3------3-------|3------3-------|
B|--3------3-----|--3------3-----|--0------0-----|--0------0-----|
G|----2------2---|----2------2---|----0------0---|----0------0---|
D|0--------------|0--------------|---------------|---------------|
A|---------------|---------------|---------------|---------------|
E|---------------|---------------|3--------------|2--------------|

  sunshine            is on your  thighs...
  D               D               G               A
E|2------2-------|2------2-------|3------3-------|---------------|
B|--3------3-----|--3------3-----|--0------0-----|2------2-------|
G|----2------2---|----2------2---|----0------0---|--2------2-----|
D|0--------------|0--------------|---------------|----2------2---|
A|---------------|---------------|---------------|0--------------|
E|---------------|---------------|3--------------|---------------|

  D               D
E|2------2-------|2------2-------|
B|--3------3-----|--3------3-----|
G|----2------2---|----2------2---|
D|0--------------|0--------------|
A|---------------|---------------|
E|---------------|---------------|



Final Part

Lady of stone you are alone
  Dmaj7           Dmaj7           G               G
E|2------2-------|2------2-------|3------3-------|3------3-------|
B|--2------2-----|--2------2-----|--0------0-----|--0------0-----|
G|----2------2---|----2------2---|----0------0---|----0------0---| ad libitum, fading...
D|0--------------|0--------------|---------------|---------------|
A|---------------|---------------|---------------|---------------|
E|---------------|---------------|3--------------|2------0-------|
            
Submit corrections


        Sea Shell And Stone lessons Hard to play? Try these video lessons and learn fast Sea Shell And Stone lessons
        
↑ Back to top | Tablatures and chords for acoustic guitar and electric guitar, ukulele, drums are parodies/interpretations of the original songs. You may use it for private study, scholarship, research or language learning purposes only