» » »

Roger Waters - Chain Of Life Tabs

Artists:  A B C D E F G H I J K L M N O P Q R S T U V W X Y Z # 

Chain Of Life Tabs

(ver. 2) Click to play this song!
Roger Waters
 Rating:
4/5 (4 votes)

 Chain Of Life lessons Tabs too difficult? Try these video lessons and learn fast
 
                
      GUITAR TAB for "Chain Of Life" (Roger Waters - Music From The Body)



Intro

E|---------------|---------------|---------------|---------------|
B|--0----0-------|--0----0-------|--0----0-------|--0----0-------|
G|-0-0--0-0-0----|-0-0--0-0-0----|-0-0--0-0-0----|-0-0--0-0-0----|
D|5----4---------|2----2---------|5----4---------|2----2---------|
A|---------------|---------------|---------------|---------------|
E|---------------|---------------|---------------|---------------|



Part I (Repeat x 2)

E|---------------|---------------|---------------|---------------|
B|--0----0-------|--0----0-------|--0----0-------|--0----0-------|
G|-0-0--0-0-0----|-0-0--0-0-0----|-0-0--0-0-0----|-0-0--0-0-0----|
D|5----4---------|2----2---------|5----4---------|2----2---------|
A|---------------|---------------|---------------|---------------|
E|---------------|---------------|---------------|---------------|

E|---------------|---------------|---------------|---------------|
B|---0----0------|--0----0-------|--0----0-------|--0----0-------|
G|--0-0--0-0-0---|-0-0--0-0-0----|-0-0--0-0-0----|-0-0--0-0-0----|
D|10----9--------|7----7---------|5----4---------|2----2---------|
A|---------------|---------------|---------------|---------------|
E|---------------|---------------|---------------|---------------|

E|---------------|---------------|---------------|
B|--0--0--0--0---|--0--0--0--0---|--0--0--0--0---|
G|-0--0--0--0----|-0--0--0--0----|-0--0--0--0----|
D|---------------|---------------|------7--4-----|
A|5--7--4--5-----|5--7--4--5-----|5--7-----------|
E|---------------|---------------|---------------|



Bridge to Part II down here. The tempo changes suddenly. Play faster, legato to
Part II.

E|---------------|---------------|
B|--0----0-------|--0------------|
G|-0-0--0-0------|-0-0-----------|
D|5----4---------|---------------|
A|---------------|5----7---------|
E|---------------|------0--------|



Part II (Repeat x 3)
(tab expanded down here but the tempo is faster than Part I)

E|------------------------------------0-------------2-3---------|
B|--------0-------0------0----0---2-4-----0-------0-------------|
G|--0---0---0---0---0----0--3-----------0---0---0----------0--0-|
D|4---5-------4-------2-1>2-----4-----5-------4-------2---------|
A|-------------------------------------------------------2------|
E|------------2-------0-----0--------------------------------0--|

E|------------------------------------0-------------2-3---------|
B|--------0-------0------0----0---2-4-----0-------0-------------|
G|--0---0---0---0---0----0--3-----------0---0---0----------0----|
D|4---5-------4-------2-1>2-----4-----5-------4-------2---------|
A|--------------------------------------------------------------|
E|------------2-------0-----0-----------------------------------|

E|-------------------------------------------------------------------|
B|-------------0--------0-----0----------------0--------0-----0------|
G|--0----0---0---0----0-----0---0---0----0---0---0----0-----0---0---0|
D|----10---9-------10-----9-----------10---9-------10-----9----------|
A|0-------------------------------0----------------------------------|
E|----------------------------0------------------------------7>8--0--|

E|------------------------------------0-------------2-3---------|
B|--------0-------0------0----0---2-4-----0-------0-------------|
G|--0---0---0---0---0----0--3-----------0---0---0----------0----|
D|4---5-------4-------2-1>2-----4-----5-------4-------2---------|
A|--------------------------------------------------------------|
E|------------2-------0-----0-----------------------------------|

E|----3---2-----3-----0---2------|
B|----------3-----3-----------3--|
G|--2---2-----2-----2---2---2---2|
D|0------------------------------|
A|-------------------------------|
E|-------------------------------|

E|----3---2-----3-----0---2------|
B|----------3-----3-----------3--|
G|--2---2-----2-----2---2---2---2|
D|0------------------------------|
A|-------------------------------|
E|-------------------------------|

E|----3---2-----3-----0---2------|-----|
B|----------3-----3-----------3--|-----|
G|--2---2-----2-----2---2---2---2|---0-|
D|0------------------------------|-----|
A|-------------------------------|-----|
E|-------------------------------|-0---|

The third time don't play the last 2 notes (0-0) but start Part I
again immediatly (legato). The tempo changes suddenly. Play slower.



Part I (Play once)

E|---------------|---------------|---------------|---------------|
B|--0----0-------|--0----0-------|--0----0-------|--0----0-------|
G|-0-0--0-0-0----|-0-0--0-0-0----|-0-0--0-0-0----|-0-0--0-0-0----|
D|5----4---------|2----2---------|5----4---------|2----2---------|
A|---------------|---------------|---------------|---------------|
E|---------------|---------------|---------------|---------------|

E|---------------|---------------|---------------|---------------|
B|---0----0------|--0----0-------|--0----0-------|--0----0-------|
G|--0-0--0-0-0---|-0-0--0-0-0----|-0-0--0-0-0----|-0-0--0-0-0----|
D|10----9--------|7----7---------|5----4---------|2----2---------|
A|---------------|---------------|---------------|---------------|
E|---------------|---------------|---------------|---------------|

E|---------------|---------------|---------------|
B|--0--0--0--0---|--0--0--0--0---|--0--0--0--0---|
G|-0--0--0--0----|-0--0--0--0----|-0--0--0--0----|
D|---------------|---------------|------7--4-----|
A|5--7--4--5-----|5--7--4--5-----|5--7-----------|
E|---------------|---------------|---------------|

E|---------------|---------------|
B|--0----0-------|--0----0-------|
G|-0-0--0-0-0----|-0-0--0-0-0----| ad libitum, fading...
D|5----4---------|2----2---------|
A|---------------|---------------|
E|---------------|---------------|
            
Submit corrections


        Chain Of Life lessons Hard to play? Try these video lessons and learn fast Chain Of Life lessons
        
↑ Back to top | Tablatures and chords for acoustic guitar and electric guitar, ukulele, drums are parodies/interpretations of the original songs. You may use it for private study, scholarship, research or language learning purposes only