» » »

Rodriguez - Sandrevan Lullaby-Lifestyles Tabs

Artists:  A B C D E F G H I J K L M N O P Q R S T U V W X Y Z # 

Sandrevan Lullaby-Lifestyles Tabs

(ver. 1) Click to play this song!
Rodriguez
 Rating:
4.3/5 (18 votes)

 Sandrevan Lullaby-Lifestyles  lessons Tabs too difficult? Try these video lessons and learn fast
 
                   Sandrevan Lullaby  T=72, gently
                                                             
E ||--------12-------12---------|--12-------12-------12------|
B ||-----------10-------10------|-----10----------------10---|
G ||o----11----------------11---|--------11-------11---------|
D ||o-0-----------12------------|--------------12------------|
A ||----------------------------|--12------------------------|
E ||----------------------------|----------------------------|

                                                      (2x)
--------10-------10---------|--9--------9--------9-------||
-----------8--------8-------|-----8--------8--------8----||
-----9--------9--------9----|--------9--------9---------o||
----------------------------|---------------------------o||
--7-------------------------|--0-------------------------||
----------------------------|----------------------------||

                                                          
                                                          
||--------3--------3----------|--------0--------3--0-------|
||-----3-----3--------3-------|-----2-----2-----------2----|
||--------------4--------4----|----------------------------|
||----------------------------|--------------2-------------|
||--2-------------------------|--0-------------------------|
||----------------------------|----------------------------|

                                                          
--------3--------3----------|--------2--------2----------|
-----3-----3--------3-------|-----------2--------2-------|
--------------4--------4----|-----2--------2--------2----|
----------------------------|----------------------------|
--2-------------------------|--0-------------------------|
----------------------------|----------------------------|

                              T=70     T=50     T=30
--------0-----------3-------|-----------3--2-----0-------||
-----0-----0-----3-----3----|--------2-------------------||
----------------------------|-----2----------------------||
--------------0-------------|----------------------------||
----------------------------|--0-------------------------||
--0-------------------------|----------------------------||

  T=72
||--------1--------1----------|--------1--------1----------|
||-----------3--------3-------|-----------3--------3-------|
||-----2--------2--------2----|-----2--------2--------2----|
||--0-------------------------|----------------------------|
||----------------------------|----------------------------|
||----------------------------|--1-------------------------|

                                                          
--------1--------1----------|--------1--------1----------|
-----------3--------3-------|-----------3--------3-------|
-----2--------2--------2----|-----2--------2--------2----|
----------------------------|----------------------------|
----------------------------|----------------------------|
--0-------------------------|--1-------------------------|

                                                          
--------3--------3----------|--3--------3----------------|
-----------3--------3-------|-----3--------3-----3-------|
-----0--------0--------0----|--------0--------0-----0----|
----------------------------|----------------------------|
----------------------------|----------------------------|
--3-------------------------|----------------------------|

                                                          
-----5--------5-------------|--------5--------5----------|
--------6--------6-----6----|-----------6--------6-------|
-----------7--------7-------|-----7--------7--------7----|
--0-------------------------|--0-------------------------|
----------------------------|----------------------------|
----------------------------|----------------------------|

                                            T=70       T=50 ^  ^           
--------0--------0----------|--------0-------------------|--1--0----------||
-----3-----3--------3-------|-----2-----2-----2----------|--3--2----------||
--------------3--------3----|--------------2-----0-------|--2--2----------||
----------------------------|----------------------------|--3--2----------||
--1-------------------------|--0-------------------------|----------------||
----------------------------|----------------------------|----------------||

  Lifestyles:Intro, T=148, firmly

    ^           ^     V  ^             ^           V        
||--------------1-----0--0----|----h1--1-----------1-------|
||--3-----------3--------3----|--------3-------------------|
||--2-----------2--------2----|--------2-------------------|
||--0-----------0--------0----|--------0-------------------|
||--0-------------------------|----------------------------|
||----------------------------|----------------------------|

  ^           ^     V  ^             ^           V        
--------------1-----0--0----|----h1--1-----------1-------|
--3-----------3--------3----|--------3-------------------|
--3-----------3--------3----|--------3-------------------|
--0-----------0--------0----|--------0-------------------|
--0-------------------------|----------------------------|
----------------------------|----------------------------|

  ^           ^     V  ^             ^           V        
--0-----------0-----0--1----|----p0----------------------|
--2-----------2--------2----|--------3-----------2-------|
--2-----------2--------2----|--------2-------------------|
--0-----------0--------0----|--------0-------------------|
--0-------------------------|----------------------------|
----------------------------|----------------------------|

  ^           ^        ^             ^           V         
-----------------------0----|----h1--1-----------1-------||
--3-----------3-----3--3----|--------3-------------------||
--2-----------2--------2----|--------2-------------------||
--0-----------0--------0----|--------0-------------------||
--0-------------------------|----------------------------||
----------------------------|----------------------------||

  % Segno
  Lifestyles:Verse  - vary strumming to suite lyrics
   ^           ^        ^             ^           V        
||-------------1-----0--0----|----h1--1-----------1-------|
||-3-----------3--------3----|--------3-------------------|
||o2-----------2--------2----|--------2-------------------|
||o0-----------0--------0----|--------0-------------------|
||-0-------------------------|----------------------------|
||---------------------------|----------------------------|

  ^           ^     V  ^             ^           V        
--------------1-----0--0----|----h1--1-----------1-------|
--3-----------3--------3----|--------3-------------------|
--3-----------3--------3----|--------3-------------------|
--0-----------0--------0----|--------0-------------------|
--0-------------------------|----------------------------|
----------------------------|----------------------------|

  ^           ^     V  ^             ^           V        
--0-----------0-----0--1----|----p0----------------------|
--2-----------2--------2----|--------3-----------2-------|
--2-----------2--------2----|--------2-------------------|
--0-----------0--------0----|--------0-------------------|
--0-------------------------|----------------------------|
----------------------------|----------------------------|

  ^           ^     V  ^             ^              (2x)
-----------------------0----|----h1--1-----------1------||
--3-----------3-----3--3----|--------3------------------||
--2-----------2--------2----|--------2-----------------o||
--0-----------0--------0----|--------0-----------------o||
--0-------------------------|---------------------------||
----------------------------|---------------------------||

  Lifestyles: Chorus - vary strumming to suite lyrics
    ^           ^     v          ^           ^     v        
||--8-----------8-----8-------|--6-----------6-----6-------|
||--8-----------8-----8-------|--6-----------6-----6-------|
||--9-----------9-------------|--7-----------7-------------|
||--10----------10------------|--8-----------8-------------|
||--10------------------------|--8-------------------------|
||--8-------------------------|--6-------------------------|

   Quick slide down with index finger bar
  ^           ^           Sustain               ^           ^     v       
--6-\5--------5-------------|----------------|--8-----------8-----8-------|
--6-----------6-------------|----------------|--8-----------8-----8-------|
--7-----------7-------------|----------------|--9-----------9-------------|
--8-----------7-------------|----------------|--10----------10------------|
--8-----------5-------------|----------------|--10------------------------|
--6-----------5-------------|----------------|--8-------------------------|

  ^           ^     v          ^  Sustain
--6-----------6-----6-------|--5----|----------------|
--6-----------6-----6-------|--6----|----------------|
--7-----------7-------------|--7----|----------------|
--8-----------8-------------|--7----|----------------|
--8-------------------------|--5----|----------------|
--6-------------------------|--5----|----------------|

  ^           ^     v          ^           ^     v        
--8-----------8-----8-------|--6-----------6-----6-------|
--8-----------8-----8-------|--6-----------6-----6-------|
--9-----------9-------------|--7-----------7-------------|
--10----------10------------|--8-----------8-------------|
--10------------------------|--8-------------------------|
--8-------------------------|--6-------------------------|

   Quick slide down with index finger bar         Move index finger up and down
  ^           ^           Sustain               ^           ^     v        
--6-\5--------5-------------|----------------|--5-----------6-----5-------|
--6-----------6-------------|----------------|--6-----------6-----6-------|
--7-----------7-------------|----------------|--7-----------7-------------|
--8-----------7-------------|----------------|--7-----------7-------------|
--8-----------5-------------|----------------|--0-------------------------|
--6-----------5-------------|----------------|----------------------------|

  ^           ^     v          ^       ^   To % Segno
--3-----------1-------------|--5----|--3----|| Repeat for the three Verse-Choruses,
--3-----------1-----3-------|--6----|--3----||  plus instrumental verse between 2 and 3
--3-----------2-----3-------|--7----|--3----||
--5-----------3-------------|--7----|--5----||
--5-------------------------|--5----|--5----||
--3-------------------------|--5----|--3----||

 Repeat Verse and Chorus for 2nd and 3rd verses

 @ Coda
  Lifestyles Outro (same as Intro and Verse)
  ^           ^        ^  Sustain   
||-------------1-----0--0----|
||-3-----------3--------3----|
||o2-----------2--------2----|  Ad lib repeat and fade
||o0-----------0--------0----|
||-0-------------------------|
||---------------------------|



        ^           V          ^           ^     V  ^     
----h1--1-----------1-------|--------------1-----0--0----|
--------3-------------------|--3-----------3--------3----|
--------2-------------------|--3-----------3--------3----|
--------0-------------------|--0-----------0--------0----|
----------------------------|--0-------------------------|
----------------------------|----------------------------|

        ^           V          ^           ^     V  ^     
----h1--1-----------1-------|--0-----------0-----0--1----|
--------3-------------------|--2-----------2--------2----|
--------3-------------------|--2-----------2--------2----|
--------0-------------------|--0-----------0--------0----|
----------------------------|--0-------------------------|
----------------------------|----------------------------|

        ^           V          ^           ^     V  ^     
----p0----------------------|-----------------------0----|
--------3-----------2-------|--3-----------3-----3--3----|
--------2-------------------|--2-----------2--------2----|
--------0-------------------|--0-----------0--------0----|
----------------------------|--0-------------------------|
----------------------------|----------------------------|

        ^  (Repeat and fade)
----h1--1------------------||
--------3------------------||
--------2-----------------o||
--------0-----------------o||
---------------------------||
---------------------------||            
Submit corrections


        Sandrevan Lullaby-Lifestyles  lessons Hard to play? Try these video lessons and learn fast Sandrevan Lullaby-Lifestyles  lessons
        
↑ Back to top | Tablatures and chords for acoustic guitar and electric guitar, ukulele, drums are parodies/interpretations of the original songs. You may use it for private study, scholarship, research or language learning purposes only