» » »

Rodrigo Y Gabriela - Torito Tabs

Artists:  A B C D E F G H I J K L M N O P Q R S T U V W X Y Z # 

Torito Tabs

(ver. 1) Click to play this song!
Rodrigo Y Gabriela
 Rating:
2.7/5 (28 votes)

 Torito  lessons Tabs too difficult? Try these video lessons and learn fast
 
                Tuning: Standard

||-------------------------|-------------------------|-------------------------|--------------------------|
||-------------------------|-------------------------|-------------------------|--------------------------|
|*-------------------------|-------------------------|-------------------------|--------------------------|
|*-----9-----9-----9-----9-|-----7-----7-----7-----7-|-----7-----7-----7-----7-|-----5--------------------|
||---7-----7-----7-----7---|---7-----7-----7-----7---|---9-----9-----9-----9---|---7-----7----5-7-5-------|
||-0-----0-----0-----0-----|-0-----0-----0-----0-----|-0-----0-----0-----0-----|-0-----0----0-------7-5-3-|
                                                                                                          
|-------------------------|-------------------------|-------------------------|--------------------------||
|-------------------------|-------------------------|-------------------------|--------------------------||
|-------------------------|-------------------------|-------------------------|--------------------------*|
|-----9-----9-----9-----9-|-----7-----7-----7-----7-|-----7-----7-----7-----7-|-----5--------------------*|
|---7-----7-----7-----7---|---7-----7-----7-----7---|---9-----9-----9-----9---|---7-----7--------5-7-5---||
|-0-----0-----0-----0-----|-0-----0-----0-----0-----|-0-----0-----0-----0-----|-0-----0----0-5-7-------7-||

|-------------------------||-----------------|-------------------|---------------|-----------------|
|-------------------------||-----------------|-------------------|---------------|-----------------|
|-------------------------|*-----------------|--2-3--2h3p2-0-----|---------0-----|-----------------|
|-9-9-9-9-9-9-7-7-7-7-7-7-|*-----5---5-7-----|-------------------|---4---4-------|-----------------|
|-7-7-7-7-7-7-5-5-5-5-5-5-||---7---7-----7-5-|---------------0-2-|-2---2-----2---|-----------------|
|-------------------------||-0---------------|0------------------|-------------3-|-3-5-br----3-5-0-|

|-----------------|-------------------|---------------|-----------------||
|-----------------|-------------------|---------------|-----------------||
|-----------------|--2-3--2h3p2-0-----|---------0-----|-----------------*|
|-----5---5-7-----|-------------------|---4---4-------|-----------------*|
|---7---7-----7-5-|---------------0-2-|-2---2-----2---|-----------------||
|-0---------------|0------------------|-------------3-|-0-3p0-0-3p0-0-3-||

|---------------------|----------------|-----------|
|---------------------|----------------|-----------|
|---------------------|----------------|-----------|
|---------------------|----------------|-----------|
|---------------------|-9---8---7---5--|-2---------|
|-0-3p0-0-5p0-0-6p0-0-|-7---6---5---3--|-0----x----|
 
|----------------|----------------|-----------------|-----------------------|
|----------------|----------------|-----------------|-----------------------|
|----------------|----------------|-----------------|-----------------------|
|----------------|----------------|-----------------|-----7s9---7s9---7s9---|
|-2----------9-8-|------------9-8-|-----9-8-----5-2-|-----5s7---5s7---5s7---|
|-0--0-0-0-0-7-6-|----0-0-0-0-7-6-|---0-7-6---0-3-0-|---0-----0-----0-----0-|

|----------------|----------------|-----------------|-----------------------|
|----------------|----------------|-----------------|-----------------------|
|----------------|----------------|-----------------|-----------------------|
|-9--------------|----------------|-----------------|-----------------------|
|-7----------9-8-|------------9-8-|-----9-8-----5-2-|-----------------------|
|----0-0-0-0-7-6-|----0-0-0-0-7-6-|---0-7-6---0-3-0-|--0-3p0-0-5p0-0-7p-0-0-|

|----------------|----------------|-----------------|-----------------------|
|----------------|----------------|-----------------|-----------------------|
|----------------|----------------|-----------------|-----------------------|
|----------------|----------------|-----------------|-----7s9---7s9---------|
|-7----------5-4-|------------5-4-|-----5-4-----5-2-|-----5s7---5s7----5----|
|----0-0-0-0-7-6-|----0-0-0-0-7-6-|---0-7-6---0-3-0-|---0-----0-----0--3-0--|

|----------------|----------------|-----------------|-----------------------|
|----------------|----------------|-----------------|-----------------------|
|----------------|----------------|-----------------|-----------------------|
|-2--------------|----------------|-----------------|-----------------------|
|-2----------5-4-|------------5-4-|-----5-4-----5-2-|---------4\-----5\-----|
|-0--0-0-0-0-7-6-|----0-0-0-0-7-6-|---0-7-6---0-3-0-|------0--2\-----3\-----|

|-------------------|--------------|------------------|--------------|
|-------------------|--------------|------------------|--------------|
|-9------7-9---9s12-|---9----------|-9------7---------|--------------|
|------9------------|--------------|------9---9-7-7s9-|--------------|
|-------------------|--------------|------------------|---7----------|
|-------------------|--------------|------------------|------0-------|

|-----------------|----------------------|-------12----------------------------|---------<12>------|
|-----------------|----------------------|----12----15-12----------------------|---------<12>------|
|-9------7-9---9s-|-12-9-12-12s14-12-14--|-14-------------15-14-12-14p12----12-|---------<12>------|
|------9----------|----------------------|-------------------------------14----|-14----------------|
|-----------------|----------------------|-------------------------------------|-------------------|
|-----------------|----------------------|-------------------------------------|-------------------|

|-------------------|----------------|------------------|------------<12>------|
|-------------------|----------------|------------------|------------<12>------|
|-9------7-9---9s12-|---9--9s12--9---|-9------7---------|------------<12>------|
|------9------------|----------------|------9---9-7-7s9-|----------------------|
|-------------------|----------------|------------------|---7------------------|
|-------------------|----------------|------------------|------0---------------|

|-----------------|-------------------------|-------------------------|--------------------|
|-----------------|-------------------------|-------------------------|--------------------|
|-9------7-9---9s-|-12-9-12-12s14-12-14-14s-|-15-14-12-12s14-12-------|--------------------|
|------9----------|-------------------------|-------------------14-14-|--------------------|
|-----------------|-------------------------|-------------------------|--------------------|
|-----------------|-------------------------|-------------------------|--------------------|

|-------------------|-------------------|----------------|-------------------|
|-------------------|-------------------|----------------|-------------------|
|-0--x----------0-0-|-0--x----------0-0-|-0--x-----------|-------------------|
|-0--x----------0-0-|-0--x----------0-0-|-0--x-----------|-------------------|
|-0--x----------0-0-|-0--x----------0-0-|-0--x-----------|-------------------|
|-0--x----------0-0-|-0--x----------0-0-|-0--x-----------|-------------------|

|------------------|------------------------|-----------------------|---------------------|
|------------------|------------------------|-----------------------|---------------------|
|---------9s7-11s9-|-12s9-14s12-16s14-19s16-|-19s21--21-21---21--21-|--21--21-21-21-21-21-|
|-----9s7----------|------------------------|-----------------------|---------------------|
|-7s5--------------|------------------------|-----------------------|---------------------|
|------------------|------------------------|-----------------------|---------------------|

|--------------------------|---------------------|-------------------------|--------------------|
|--------------------------|---------------------|-------------------------|-----------------12-|
|-21-21-19s16-16-19-16--15-|---15-14-12-14-12----|-9s7---7s4---------------|--------------------|
|--------------------------|-------------------9-|-----7-----5-7s5-5-------|--------------------|
|--------------------------|---------------------|-------------------5-5s7-|--7s10-10-10--------|
|--------------------------|---------------------|-------------------------|--------------------|

|-12----12----12----12----12----12----|-12s15--15-15\----------|-12----12----12----12----12----12----|
|----12----12----12----12----12----12-|-12s15---------------12-|----12----12----12----12----12----12-|
|-------------------------------------|------------------------|-------------------------------------|
|-------------------------------------|------------------------|-------------------------------------|
|-------------------------------------|------------------------|-------------------------------------|
|-------------------------------------|------------------------|-------------------------------------|

|---------------------|-12----12----12----12----12----12----|-------15-------14-------13-------12-|
|------------------12-|----12----12----12----12----12----12-|----15-------14-------13-------12----|
|-12--14-12-----------|-------------------------------------|-15-------14-------13-------12-------|
|-------------14------|-------------------------------------|-------------------------------------|
|---------------------|-------------------------------------|-------------------------------------|
|---------------------|-------------------------------------|-------------------------------------|

|-------11-------10-----9------|------------------------|---------------|-----------------|-----------------|
|----11-------10------9--------|------------------------|---------------|-----------------|-----------------|
|-11-------10-------9-----8\---|------------------------|---------------|-----------------|-----------------|
|------------------------------|------------------------|---------------|-----------------|-----------------|
|------------------------------|-2//////////////////11--|---------------|-----------------|-----------------|
|------------------------------|-2//////////////////11--|0--------------|-----------------|-----------------|

|-------------------------|----------------|-----------------|-----------------|----------------------------|
|-------------------------|----------------|-----------------|-----------------|----------------------------|
|-------------------------|----------------|-----------------|-----------------|----------------------------|
|-0h2-2-2p0-0-------------|----------------|-----------------|-----------------|----------------------------|
|-------------0h2-2-2p0---|-2--------------|-----------------|-----------------|-12///////////////////////4-|
|-----------------------3-|-0--------------|-----------------|-----------------|-12///////////////////////4-|

||----------------------|--------------------|----------------------|-------------------------|
||----------------------|--------------------|----------------------|-------------------------|
|*----------------------|--------------------|----------------------|-------------------------|
|*--------------5-------|--------------5-----|--------------5-------|-------------------------|
||----------5-7---7-5---|----------5-7---7---|----------5-7---7-5---|-5-5-5-5-5-5-7-7-7-7-7-7-|
||-0--3s4-0-----------7-|-0--3s4-0-----------|-0--3s4-0-----------7-|-3-3-3-3-3-3-5-5-5-5-5-5-|

|----------------------|--------------------|----------------------|-----------------------||
|----------------------|--------------------|----------------------|-----------------------||
|----------------------|--------------------|----------------------|-----------------------*|
|--------------5-------|--------------5-----|--------------5-------|-----------------------*|
|----------5-7---7-5---|----------5-7---7---|----------5-7---7-5---|-5-5-5-5-5-5-5-5-5-5-5-||
|-0--3s4-0-----------7-|-0--3s4-0-----------|-0--3s4-0-----------7-|-3-3-3-3-3-3-2-2-2-2-2-||

|-----------------------|-------------------------|-------------------------|
|-----------------------|-------------------------|-------------------------|
|-----------------------|-------------------------|-------------------------|
|-----------------------|-------------------------|-------------------------|
|-5-5-5-5-5-5-5-5-5-5-5-|-4-4-4-4-4-4-2-2-2-2-2-2-|-7-7-7-7-7-7-6-6-6-6-6-6-|
|-3-3-3-3-3-3-2-2-2-2-2-|-5-5-5-5-5-5-3-3-3-3-3-3-|-8-8-8-8-8-8-7-7-7-7-7-7-|

|-----------------|--------------------|---------------|-----------------|
|-----------------|--------------------|---------------|-----------------|
|-----------------|---2-3--2h3p2-0-----|---------0-----|-----------------|
|-----5---5-7-----|--------------------|---4---4-------|-----------------|
|---7---7-----7-5-|----------------0-2-|-2---2-----2---|-----------------|
|-0---------------|-0------------------|-------------3-|-3-5-br----3-5-0-|

|-----------------|--------------------|---------------|-----------------|
|-----------------|--------------------|---------------|-----------------|
|-----------------|---2-3--2h3p2-0-----|---------0-----|-----------------|
|-----5---5-7-----|--------------------|---4---4-------|-----------------|
|---7---7-----7-5-|----------------0-2-|-2---2-----2---|-----------------|
|-----------------|-0------------------|-------------3-|-0-3p0-0-3p0-0-3-|
                                                                         
|-----------------|--------------------|---------------|-----------------|
|-----------------|--------------------|---------------|-----------------|
|---------------7-|---2-3--2h3p2-0-----|---------0-----|-----------------|
|-----5---5-7s9---|--------------------|---4---4-------|-----------------|
|---7---7---------|----------------0-2-|-2---2-----2---|-----------------|
|-0---------------|-0------------------|-------------3-|-3-5-br----3-5-0-|
                                                                          
|-----------------|--------------------|---------------------|----------------|
|-----------------|--------------------|---------------------|----------------|
|---------------7-|---2-3--2h3p2-0-----|---------------------|----------------|
|-----5---5-7s9---|--------------------|---------------------|----------------|
|---7---7---------|----------------0-2-|---------------------|-9---8---7---5--|
|-----------------|-0------------------|-0-3p0-0-5p0-0-6p0-0-|-7---6---5---3--|

||---------------------|-----------------------|---------------------|-----------------------|
||---------------------|-----------------------|---------------------|-----------------------|
|*---------------------|-----------------------|---------------------|-----------------------|
|*---------------------|-----------------------|---------------------|-----------------------|
||-2-2-2-2---2-2-2-2---|-2-2-2-2---2-2-2-2-2-2-|-2-2-2-2---2-2-2-2---|-2-2-2-2---2-2-2-2-2-2-|
||-0-0-0-0---0-0-0-0---|-0-0-0-0---3-3-3-3-3-3-|-0-0-0-0---0-0-0-0---|-0-0-0-0---3-3-3-3-3-3-|
                                                                                           x3
|---------------------|-----------------------|---------------------|------------------------||
|---------------------|-----------------------|---------------------|------------------------||
|---------------------|-----------------------|---------------------|------------------------*|
|---------------------|-----------------------|---------------------|------------------------*|
|-2-2-2-2---2-2-2-2---|-2-2-2-2---2-2-2-2-2-2-|-5-5-5-5---5-5-5-5---|-3-3-3-3---3-3-3-3-3-3--||
|-0-0-0-0---0-0-0-0---|-0-0-0-0---3-3-3-3-3-3-|-2-2-2-2---2-2-2-2---|-1-1-1-1---1-1-1-1-1-1--||

|----------------------|--------------------|----------------------|--------------------|
|----------------------|--------------------|----------------------|--------------------|
|----------------------|--------------------|----------------------|--------------------|
|----------------------|--------------------|----------------------|--------------------|
|-2-2-2-2---7-7-7-7\---|-2-2-2-2---2--2--2--|-2-2-2-2---7-7-7-7\---|-2-2-2-2---2--2--2--|
|-0-0-0-0--------------|-0-0-0-0---3--3--3--|-0-0-0-0--------------|-0-0-0-0---3--3--3--|

|----------------------|--------------------|-------------------|-------------------|
|----------------------|--------------------|-------------------|-------------------|
|----------------------|--------------------|-------------------|-------------------|
|----------------------|--------------------|-------------------|-------------------|
|-2-2-2-2---7-7-7-7\---|-2-2-2-2---2--2--2--|-5--5--5--5--5--5--|-3--3--3--3--3--3--|
|-0-0-0-0--------------|-0-0-0-0---3--3--3--|-2--2--2--2--2--2--|-1--1--1--1--1--1--|

|------------------------------|---------------------------|-0----------------|
|------------------------------|-------0-------------------|-0----------------|
|----------0-----------0-------|----0-----0-----------0----|-0----------------|
|-------4-----4-----4-----4----|-4-----------4-----4-------|-4----------------|
|----2-----------2-----------2-|----------------2----------|-2----------------|
|-0----------------------------|---------------------------|-0----------------|            
Submit corrections


        Torito  lessons Hard to play? Try these video lessons and learn fast Torito  lessons
        
↑ Back to top | Tablatures and chords for acoustic guitar and electric guitar, ukulele, drums are parodies/interpretations of the original songs. You may use it for private study, scholarship, research or language learning purposes only