» » »

Rodrigo Y Gabriela - Mettavolution Tabs

Artists:  A B C D E F G H I J K L M N O P Q R S T U V W X Y Z # 

Mettavolution Tabs

(ver. 1) Click to play this song!
Rodrigo Y Gabriela
 Rating:
4.3/5 (29 votes)

 Mettavolution lessons Tabs too difficult? Try these video lessons and learn fast
 
                [Intro]

e|----------------------------11-11-11-11-11-11-|----------------------------11-11-11-11-11-11-|
B|----------------------------10-10-10-10-10-10-|----------------------------10-10-10-10-10-10-|
G|----------------------------11-11-11-11-11-11-|----------------------------11-11-11-11-11-11-|
D|----------------------------------------------|----------------------------------------------|
A|----------------------------------------------|----------------------------------------------|
E|-2-2-5-2---2---2-2-2-5-2----------------------|-2-2-5-2---2---2-2-2-5-2----------------------|

e|----------------------------11-11-11-11-11-11-|----------------------------|
B|----------------------------10-10-10-10-10-10-|----------------------------|
G|----------------------------11-11-11-11-11-11-|----------------------------|
D|----------------------------------------------|----------------------------|
A|----------------------------------------------|----------------------------|
E|-2-2-5-2---2---2-2-2-5-2----------------------|-2-2-5-2---2---2-2-2-5-2----|


[Verse 1]

e|----------------------------|-------------------------|-----------------------------------|
B|----------------------------|-------------------------|-----------------------------------|
G|----------------------------|-------------------------|-----------------------------------|
D|-4-4-4-4--6-------------2---|-2-2-2-2--4----------2-4-|-4-4-2---2---4--4---2---2------2-4-|
A|-------------7--4----2h4--4-|-------------4----2h4----|------4--------------4------2h4----|
E|----------------------------|-------------------------|-----------------------------------|

e|-----------------------------------|
B|-----------------------------------|
G|-----------------------------------|
D|-4-4-2---2---4--4---2---2------2---|
A|------4--------------4------2h4--4-|
E|-----------------------------------|

e|----------------------------|---------------------------------|----------------------------------|
B|----------------------------|---------------------------------|----------------------------------|
G|----------------------------|-------------------------------4-|-/9-9-9-7---7-7-7-6-6-6-4---2-4-2-|
D|-4-4-4-4--6-------------2---|-2-----------------------2-4/6---|----------------------------------|
A|-------------7--4----2h4--4-|---4-4-4--2--4-------2-4---------|----------------------------------|
E|----------------------------|------------------2h4------------|----------------------------------|

e|---------------------------------|
B|---2--2--------------------------|
G|-4-------2-4-2-4p2---------------|
D|------------------4-2-4-4p2------|
A|---------------------------4-2---|
E|-------------------------------5-|


[Intro]

e|----------------------------11-11-11-11-11-11-|----------------------------|
B|----------------------------10-10-10-10-10-10-|----------------------------|
G|----------------------------11-11-11-11-11-11-|----------------------------|
D|----------------------------------------------|----------------------------|
A|----------------------------------------------|----------------------------|
E|-2-2-5-2---2---2-2-2-5-2----------------------|-2-2-5-2---2---2-2-2-5-2----|


[Verse 2]

e|-----------4-----7------|---------------------4---------|--------------------------------|
B|-7-7-7-7------5----5----|-5-5-5-5---7-----5---------5-7-|-7-5---5---7--7---5---5-----5-7-|
G|---------------------6--|--------------6----6----/6-----|-----6--------------6----/6-----|
D|------------------------|-------------------------------|--------------------------------|
A|------------------------|-------------------------------|--------------------------------|
E|------------------------|-------------------------------|--------------------------------|

e|--------------5---------------|
B|-7-5---5---7--7---5---5-----5-|
G|-----6--------6-----6----/6---|
D|------------------------------|
A|------------------------------|
E|------------------------------|

e|-5-5-5-5---7---9--9-------|-----------------------------4-7-|-/12-12-12-10---10-10-10-9-9-9-7-------------|
B|-7-7-7-7---9---9----9-----|-9-----------------------5-7-----|-----------------------------------/10-12-10-|
G|-6-6-6-6-------9------9---|-9-6-6-6---4---6-----4-6---------|---------------------------------------------|
D|--------------------------|-------------------6-------------|---------------------------------------------|
A|--------------------------|---------------------------------|---------------------------------------------|
E|--------------------------|---------------------------------|---------------------------------------------|

e|--9--x--9--x--9--x--9--9--9--9---9--x-9--x-9--x-9-9-9-9-|
B|-10--x-10--x-10--x-10-10-10-10---9--x-9--x-9--x-9-9-9-9-|
G|-11--x-11--x-11--x-11-11-11-11---9--x-9--x-9--x-9-9-9-9-|
D|--------------------------------------------------------|
A|--------------------------------------------------------|
E|--------------------------------------------------------|


[Chorus]

e|-7-7-7-7-7--5---------5------------|-7-7-7-7-7--5---------5------------|
B|-5-5-5-5-5--5---5--7-----5-7---5-7-|-5-5-5-5-5--5---5--7-----5-7-5-5---|
G|-6-6-6-6-6--6----------------6-----|-6-6-6-6-6--6----------------------|
D|-----------------------------------|-----------------------------------|
A|-----------------------------------|-----------------------------------|
E|-----------------------------------|-----------------------------------|

e|-12-12-12-12-12--10---10---10---9--9--9--9--9--7---7--|-2-2-2-2-2--2--2--2-2--2---4-4-4-4-4--4--4--4-4--4-|
B|-10-10-10-10-10--10---10---10--10-10-10-10-10--7---7--|-3-3-3-3-3--3--3--3-3--3---5-5-5-5-5--5--5--5-5--5-|
G|-11-11-11-11-11--11---11---11--11-11-11-11-11--7---7--|-2-2-2-2-2--2--2--2-2--2---4-4-4-4-4--4--4--4-4--4-|
D|------------------------------------------------------|---------------------------------------------------|
A|------------------------------------------------------|---------------------------------------------------|
E|------------------------------------------------------|---------------------------------------------------|

e|-7-7-7-7-7--5---------5------------|-7-7-7-7-7--5---------5------------|
B|-5-5-5-5-5--5---5--7-----5-7---5-7-|-5-5-5-5-5--5---5--7-----5-7-5-5---|
G|-6-6-6-6-6--6----------------6-----|-6-6-6-6-6--6----------------------|
D|-----------------------------------|-----------------------------------|
A|-----------------------------------|-----------------------------------|
E|-----------------------------------|-----------------------------------|

e|-12-12-12-12-12--10---10---10---9--9--9--9--9--7---7--|
B|-10-10-10-10-10--10---10---10--10-10-10-10-10--7---7--|
G|-11-11-11-11-11--11---11---11--11-11-11-11-11--7---7--|
D|------------------------------------------------------|
A|------------------------------------------------------|
E|------------------------------------------------------|

e|-14-14-14-14-14--14--14--14-14--14---16-16-16-16-16--16--16--16-16--16-|
B|-15-15-15-15-15--15--15--15-15--15---17-17-17-17-17--17--17--17-17--17-|
G|-14-14-14-14-14--14--14--14-14--14---16-16-16-16-16--16--16--16-16--16-|
D|-----------------------------------------------------------------------|
A|-----------------------------------------------------------------------|
E|-----------------------------------------------------------------------|


[Bridge]

e|--------------------------------------|-------------------------------------|
B|--------------------------------------|-12-12--10-10-10---9--9--9--10-10-10-|
G|-11--11----9-11---11--11----9----9-11-|-11-11--11-11-11--11-11-11--11-11-11-|
D|--------11---------------11---11------|-------------------------------------|
A|--------------------------------------|-------------------------------------|
E|--------------------------------------|-------------------------------------|

e|--------------------------------------|-9------------------9-----------------|
B|--------------------------------------|---10----------10-----10---------10---|
G|-11--11----9-11---11--11----9----9-11-|-------11--9h11--11------11--9h11--11-|
D|--------11---------------11---11------|--------------------------------------|
A|--------------------------------------|--------------------------------------|
E|--------------------------------------|--------------------------------------|

e|------------------------------------------------|-------12--------------------------------------------|
B|-------10----12---------------10----12----10-12-|-12/14----12-10---12-12p10---------------------------|
G|-11-11----11----11---11-11-11----11----11-------|--------------------------11---11-11p9---------------|
D|------------------------------------------------|--------------------------------------11---11-11p9\7-|
A|------------------------------------------------|-----------------------------------------------------|
E|------------------------------------------------|-----------------------------------------------------|

e|-7-7-7-7-7--x-7--x-7---10-10-10-10-10--x-10--x-10-|--9--9--9--9--9--x--9--x--9----9--9/7-7/5-5/4-4-|
B|-5-5-5-5-5--x-5--x-5---10-10-10-10-10--x-10--x-10-|--9--9--9--9--9--x--9--x--9----9--9/7-7/5-5/4-4-|
G|-6-6-6-6-6--x-6--x-6---11-11-11-11-11--x-11--x-11-|-10-10-10-10-10--x-10--x-10---10-10/8-8/6-6/4-4-|
D|--------------------------------------------------|------------------------------------------------|
A|--------------------------------------------------|------------------------------------------------|
E|--------------------------------------------------|------------------------------------------------|


[Solo]

### As fast as possible 
e|----------------------------------------------|----------------------------------------------|
B|----------------------------------------------|----------------------------------------------|
G|----------------------------------------------|----------------------------------------------|
D|-9/11-11-11-11-11-9/11-11-11-11-11-9/11-11-11-|-9/11-11-11-11-11-9/11-11-11-11-11-9/11-11-11-|
A|----------------------------------------------|----------------------------------------------|
E|----------------------------------------------|----------------------------------------------|

e|------------------------------------------|---------------------------------|
B|------------------------------------------|---------------------------------|
G|------------------------------------------|---------------------------------|
D|-7/9-9-9-9-9-7/9-9-9-9-9-9/11-11-11-11-11-|-5/6-6-6-6-6-5/6-6-6-6-6-7-7-7-7-|
A|------------------------------------------|---------------------------------|
E|------------------------------------------|---------------------------------|

e|-------------------------------------------------------------------------------|
B|-------------------------------------------------------------------------------|
G|-------------------------------------------------------------------------------|
D|-4-4-4/11-11-11-11-11-11-11-11-11-11-11-4-4-4/11-11-11-11-11-11-11-11-11-11-11-|
A|-------------------------------------------------------------------------------|
E|-------------------------------------------------------------------------------|

e|-----------------------------------------------------------------------|
B|-----------------------------------------------------------------------|
G|-----------------------------------------------------------------------|
D|-9-9-9-9-9-9-9-9-9-9-9-9-9/11-11-11-6-6-6-6-6-6-6-6-6-6-6-6/5/4/3/2/1/-|
A|-----------------------------------------------------------------------|
E|-----------------------------------------------------------------------|

e|-------------------------------------------------------------------------------------|
B|-------------------------------------------------------------------------------------|
G|-/14-14-14-14-14-14-14-13-13-13-13-13-13-11-11-11-11-6-6-6-6-6-6-6-6-6-6-6-6-6-6-6-6-|
D|-------------------------------------------------------------------------------------|
A|-------------------------------------------------------------------------------------|
E|-------------------------------------------------------------------------------------|

e|-------------------------------------------------------------------------------------|
B|-------------------------------------------------------------------------------------|
G|-/14-14-14-14-14-14-14-13-13-13-13-13-13-14-14-14-14-6-6-6-6-6-6-6-6-6-6-6-6-6-6-6-6-|
D|-------------------------------------------------------------------------------------|
A|-------------------------------------------------------------------------------------|
E|-------------------------------------------------------------------------------------|

e|---------------------------------------------------------------------------------------------------------|
B|---------------------------------------------------------------------------------------------------------|
G|-/13-13-13-13-/14-14-14-14-/16-16-16-16-\14-14-14-14-\13-13-13-13-/14-14-14-14-/16-16-16-16-/18-18-18-18-|
D|---------------------------------------------------------------------------------------------------------|
A|---------------------------------------------------------------------------------------------------------|
E|---------------------------------------------------------------------------------------------------------|

e|----------------------------------------------------------------------------------------------|
B|-/17-17-17-17-17-17-/17-17-17-17-/17-17-17-17-19-19-19-19-19-19-19-19-19-19-19-19-19-19-19-19-|
G|----------------------------------------------------------------------------------------------|
D|----------------------------|-----------------------------------------------------------------|
A|----------------------------------------------------------------------------------------------|
E|----------------------------------------------------------------------------------------------|


[Chorus]

e|-7-7-7-7-7--5---------5------------|-7-7-7-7-7--5---------5------------|
B|-5-5-5-5-5--5---5--7-----5-7---5-7-|-5-5-5-5-5--5---5--7-----5-7-5-5---|
G|-6-6-6-6-6--6----------------6-----|-6-6-6-6-6--6----------------------|
D|-----------------------------------|-----------------------------------|
A|-----------------------------------|-----------------------------------|
E|-----------------------------------|-----------------------------------|

e|-12-12-12-12-12--10---10---10---9--9--9--9--9--7---7--|-2-2-2-2-2--2--2--2-2--2---4-4-4-4-4--4--4--4-4--4-|
B|-10-10-10-10-10--10---10---10--10-10-10-10-10--7---7--|-3-3-3-3-3--3--3--3-3--3---5-5-5-5-5--5--5--5-5--5-|
G|-11-11-11-11-11--11---11---11--11-11-11-11-11--7---7--|-2-2-2-2-2--2--2--2-2--2---4-4-4-4-4--4--4--4-4--4-|
D|------------------------------------------------------|---------------------------------------------------|
A|------------------------------------------------------|---------------------------------------------------|
E|------------------------------------------------------|---------------------------------------------------|

e|-7-7-7-7-7--5---------5------------|-7-7-7-7-7--5---------5------------|
B|-5-5-5-5-5--5---5--7-----5-7---5-7-|-5-5-5-5-5--5---5--7-----5-7-5-5---|
G|-6-6-6-6-6--6----------------6-----|-6-6-6-6-6--6----------------------|
D|-----------------------------------|-----------------------------------|
A|-----------------------------------|-----------------------------------|
E|-----------------------------------|-----------------------------------|

e|-12-12-12-12-12--10---10---10---9--9--9--9--9--7---7--|
B|-10-10-10-10-10--10---10---10--10-10-10-10-10--7---7--|
G|-11-11-11-11-11--11---11---11--11-11-11-11-11--7---7--|
D|------------------------------------------------------|
A|------------------------------------------------------|
E|------------------------------------------------------|

e|-14-14-14-14-14--14--14--14-14--14---16-16-16-16-16--16--16--16-16--16-|
B|-15-15-15-15-15--15--15--15-15--15---17-17-17-17-17--17--17--17-17--17-|
G|-14-14-14-14-14--14--14--14-14--14---16-16-16-16-16--16--16--16-16--16-|
D|-----------------------------------------------------------------------|
A|-----------------------------------------------------------------------|
E|-----------------------------------------------------------------------|


[Outro]

e|-------------12--------9----|-------------12--------9----|
B|----------10-------12-------|----------10-------12-------|
G|-11----11-------------------|-11----11-------------------|
D|----------------------------|----------------------------|
A|----------------------------|----------------------------|
E|----------------------------|----------------------------|

### x2
e|-12-x-x-12-x-x-12---11-x-x-11-x-x-11----9-x-x--9-x-x--9----9-x-x--9-x-x--9-|
B|-10-x-x-10-x-x-10---10-x-x-10-x-x-10---10-x-x-10-x-x-10---10-x-x-10-x-x-10-|
G|-11-x-x-11-x-x-11---11-x-x-11-x-x-11---11-x-x-11-x-x-11---11-x-x-11-x-x-11-|
D|---------------------------------------------------------------------------|
A|---------------------------------------------------------------------------|
E|---------------------------------------------------------------------------|

### x6
e|-12-x-x-12-x-x-12-x-x-x-x-x-x-11-x-x-11-x-x-11-x-x-x-x-x-x--9-x-x--9-x-x--9-x-x-x-x-x-x--9-x-x--9-x-x--9-|
B|-10-x-x-10-x-x-10-x-x-x-x-x-x-10-x-x-10-x-x-10-x-x-x-x-x-x-10-x-x-10-x-x-10-x-x-x-x-x-x-10-x-x-10-x-x-10-|
G|-11-x-x-11-x-x-11-x-x-x-x-x-x-11-x-x-11-x-x-11-x-x-x-x-x-x-11-x-x-11-x-x-11-x-x-x-x-x-x-11-x-x-11-x-x-11-|
D|---------------------------------------------------------------------------------------------------------|
A|---------------------------------------------------------------------------------------------------------|
E|---------------------------------------------------------------------------------------------------------|

### x2 ### Corresponds to times 5 and 6 of the previous 
e|--------------------------------------------------------------------------------------------------------|
B|----10--12----10--------10--12----10--------10--12----10-7-7-7-7/10-10-10-10/14-14-14-14\10-10-10-10----|
G|-----------------------------------------------------------------------------------------------------11-|
D|--------------------------------------------------------------------------------------------------------|
A|--------------------------------------------------------------------------------------------------------|
E|--------------------------------------------------------------------------------------------------------|

            
Submit corrections


        Mettavolution lessons Hard to play? Try these video lessons and learn fast Mettavolution lessons
        
↑ Back to top | Tablatures and chords for acoustic guitar and electric guitar, ukulele, drums are parodies/interpretations of the original songs. You may use it for private study, scholarship, research or language learning purposes only