» » »

Rodrigo Y Gabriela - Juan Loco Part I Tabs

Artists:  A B C D E F G H I J K L M N O P Q R S T U V W X Y Z # 

Juan Loco Part I Tabs

(ver. 1) Click to play this song!
Rodrigo Y Gabriela
 Rating:
4/5 (4 votes)

 Juan Loco Part I lessons Tabs too difficult? Try these video lessons and learn fast
 
                (Intro)
Rodrigo y Gabriela
“Juan loco” – part I



e|-------------------9-------9-|----------------------11----------11----|
B|------9--12-11-9-----9---9---|---------11-14-12-11-----12----12-------|
G|----8------------------9-----|------12--------------------13----------|
D|--9--------------------------|---13-----------------------------------|
A|-----------------------------|----------------------------------------|
E|-----------------------------|----------------------------------------|




e|-------------------9-------9-|----------------------11-------9---------|
B|------9--12-11-9-----9---9---|---------11-14-12-11-----12-------11-----|
G|----8------------------9-----|------12--------------------13--------12-|
D|--9--------------------------|---13------------------------------------|
A|-----------------------------|-----------------------------------------|
E|-----------------------------|-----------------------------------------|




e|-------------------9-------9-|----------------------11----------11----|
B|------9--12-11-9-----9---9---|---------11-14-12-11-----12----12-------|
G|----8------------------9-----|------12--------------------13----------|
D|--9--------------------------|---13-----------------------------------|
A|-----------------------------|----------------------------------------|
E|-----------------------------|----------------------------------------|



e|-------------------9-------9-|-------------------------------------------|
B|------9--12-11-9-----9---9---|---------11-14-12-11-12-11-9-11-9----------|
G|----8------------------9-----|------12---------------------------12-11-9-|
D|--9--------------------------|---13--------------------------------------|
A|-----------------------------|-------------------------------------------|
E|-----------------------------|-------------------------------------------|




e|------------|--------------------|------------------|-------------------------|
B|------------|-----9-12-11-9------|------11-12---11--|-----9--11--9------------|
G|-8-6-8------|---8-------------9--|----9-------------|---8------------8--------|
D|--------9-8-|-9------------------|-11---------------|-8-----------------11--8-|
A|------------|--------------------|------------------|-------------------------|
E|------------|--------------------|------------------|-------------------------|





e|--------------------|-----------------|-----------------|-----------------|
B|-----9--12-11-9-----|------11-12--11--|-----9-11-9-11-9-|-----9-12-11-9---|
G|---8--------------9-|----9------------|---8-------------|---8------------9|
D|-9------------------|-11--------------|-8---------------|-9---------------|
A|--------------------|-----------------|-----------------|-----------------|
E|--------------------|-----------------|-----------------|-----------------|

e|-----------------|------------------------|---------------------|
B|------11-12--11--|-----9-11--9------------|-----9-12-11-9-------|
G|----9------------|---8-----------8--------|---8--------------9--|
D|-11--------------|-8----------------11-8--|-9-------------------|
A|-----------------|------------------------|---------------------|
E|-----------------|------------------------|---------------------|

e|-----------------|-------------------|-----4--------------|------2--------------|
B|------11-12--11--|-----9-11-9--------|---4----7-5-4--7--5-|----2----5-4-2--5—4--|
G|----9------------|---8---------9~----|-4------------------|--3------------------|
D|-11--------------|-8-----------------|--------------------|---------------------|
A|-----------------|-------------------|--------------------|---------------------|
E|-----------------|-------------------|--------------------|---------------------|


e|-----0------0--------|------0------0--------|------0-------0----------|
B|---0------0----------|----0------0----------|----0-------0------------|
G|-9------8------6-8-9-|-11------9-----8-9-11-|-13------11------9-11-13-|
D|---------------------|----------------------|-------------------------|
A|---------------------|----------------------|-------------------------|
E|---------------------|----------------------|-------------------------|


e|----11---------------------|
B|-12-----14-12--11----------|
G|-------------------13-12~--|
D|---------------------------|
A|---------------------------|
E|---------------------------|

e|-------------------9-------9-|----------------------11----------11----|
B|------9--12-11-9-----9---9---|---------11-14-12-11-----12----12-------|
G|----8------------------9-----|------12--------------------13----------|
D|--9--------------------------|---13-----------------------------------|
A|-----------------------------|----------------------------------------|
E|-----------------------------|----------------------------------------|




e|-------------------9-------9-|----------------------11-------9---------|
B|------9--12-11-9-----9---9---|---------11-14-12-11-----12-------11-----|
G|----8------------------9-----|------12--------------------13--------12-|
D|--9--------------------------|---13------------------------------------|
A|-----------------------------|-----------------------------------------|
E|-----------------------------|-----------------------------------------|

e|-------------------9-------9-|----------------------11----------11----|
B|------9--12-11-9-----9---9---|---------11-14-12-11-----12----12-------|
G|----8------------------9-----|------12--------------------13----------|
D|--9--------------------------|---13-----------------------------------|
A|-----------------------------|----------------------------------------|
E|-----------------------------|----------------------------------------|

e|-------------------9-------9-|----------------------------|
B|------9--12-11-9-----9---9---|---------11-14-12-11--------|
G|----8------------------9-----|------12--------------13----|
D|--9--------------------------|---13-----------------------|
A|-----------------------------|----------------------------|
E|-----------------------------|----------------------------|

Corrections and suggestions of any kind are wellcome.
            
Submit corrections


        Juan Loco Part I lessons Hard to play? Try these video lessons and learn fast Juan Loco Part I lessons
        
↑ Back to top | Tablatures and chords for acoustic guitar and electric guitar, ukulele, drums are parodies/interpretations of the original songs. You may use it for private study, scholarship, research or language learning purposes only