» » »

Rocketship - Im Lost Without You Here Chords

Artists:  A B C D E F G H I J K L M N O P Q R S T U V W X Y Z # 

Im Lost Without You Here Chords

(ver. 1) Click to play this song!
Rocketship
 Rating:
4.3/5 (15 votes)

 Im Lost Without You Here  lessons Tabs too difficult? Try these video lessons and learn fast
 
                [Intro]

     Fmaj7      C       Fmaj7      C    Fmaj7      C              Fmaj7      
e-|--0--0--0-1--0-------0---------------0--0--0-1--0--------------0--------------|-
B-|------------------3-----3--1-3--1------------------3--1--3--1-----3--1-3--1---|-
G-|------------------------------------------------------------------------------|-
D-|------------------------------------------------------------------------------|-
A-|------------------------------------------------------------------------------|-
E-|------------------------------------------------------------------------------|-
     do do dodo do~ do do do dodo do~   do do dodo do do do do do do do dodo do~


[Verse 1]

C         Dm
open your eyes
         Fmaj7
you're a sleepy head
      G
don't stay in bed all day
C                 Dm
    it's sunny outside
           Fmaj7       G
and better dreams have your mind


[Pre-Chorus]

Em                 Am
    sunday through saturday
Dm           G
from year to year
Em                Am
    the skies are gray without you
    D7
i'm lost without you here


[Chorus]

     Fmaj7      C       Fmaj7      C    Fmaj7      C              Fmaj7      
e-|--0--0--0-1--0-------0---------------0--0--0-1--0--------------0--------------|-
B-|------------------3-----3--1-3--1------------------3--1--3--1-----3--1-3--1---|-
G-|------------------------------------------------------------------------------|-
D-|------------------------------------------------------------------------------|-
A-|------------------------------------------------------------------------------|-
E-|------------------------------------------------------------------------------|-
     do do dodo do~ do do do dodo do~   do do dodo do do do do do do do dodo do~


[Verse 2]

C              Dm
let's see that smile
Fmaj7          G
come from underneath the covers
C                  Dm
hey, times wasting away
           Fmaj7          G
and better dreams have my mind


[Pre-Chorus]

Em              Am
    i have some fantasies
Dm         G
wishes and fears
Em                Am
    come crashing down around me
    D7
i'm lost without you here


[Bridge]

G     C           G
hide-aways in the cloud,
      C          G     C
hello kisses and lemonade,
    C       Em         F       G
and all the things you used to say


[Chorus]

     Fmaj7      C       Fmaj7      C    Fmaj7      C              Fmaj7      
e-|--0--0--0-1--0-------0---------------0--0--0-1--0--------------0--------------|-
B-|------------------3-----3--1-3--1------------------3--1--3--1-----3--1-3--1---|-
G-|------------------------------------------------------------------------------|-
D-|------------------------------------------------------------------------------|-
A-|------------------------------------------------------------------------------|-
E-|------------------------------------------------------------------------------|-
     do do dodo do~ do do do dodo do~   do do dodo do do do do do do do dodo do~


[Verse 3]

C         Dm
open your eyes
         Fmaj7
you're a sleepy head
      G
don't stay in bed all day
C                 Dm
    it's sunny outside
           Fmaj7       G
and better dreams have your mind


[Pre-Chorus]

Em                 Am
    sunday through saturday
Dm           G
from year to year
Em                Am
    the skies are gray without you
    D7
i'm lost without you here            
Submit corrections


        Im Lost Without You Here  lessons Hard to play? Try these video lessons and learn fast Im Lost Without You Here  lessons
        
↑ Back to top | Tablatures and chords for acoustic guitar and electric guitar, ukulele, drums are parodies/interpretations of the original songs. You may use it for private study, scholarship, research or language learning purposes only