» » »

Rob Zombie - What Lurks On Channel X Tabs

Artists:  A B C D E F G H I J K L M N O P Q R S T U V W X Y Z # 

What Lurks On Channel X Tabs

(ver. 2) Click to play this song!
Rob Zombie
 Rating:
4/5 (4 votes)

 What Lurks On Channel X lessons Tabs too difficult? Try these video lessons and learn fast
 
                BPM=118 

"Thirteen acres of hell." "AHHH!!" 

D|-------------------------------------|--------------------------------- 
A|-------------------------------------|--------------------------------- 
F|-------------------------------------|--------------------------------- 
C|--0-6/0/6--0-6/0/6--0-6/0/6--0-6/0/6-|-0-6/0/6--0-6/0/6--0-6/0/6--0-9~- 
G|--0-6/0/6--0-6/0/6--0-6/0/6--0-6/0/6-|-0-6/0/6--0-6/0/6--0-6/0/6--0-9~- 
C|--0-6/0/6--0-6/0/6--0-6/0/6--0-6/0/6-|-0-6/0/6--0-6/0/6--0-6/0/6--0-9~- 

Verse: 

D|------------------ 
A|------------------ 
F|------------------ 
C|--9-9-9-9-9-9-10~- 
G|--9-9-9-9-9-9-10~- 
C|--9-9-9-9-9-9-10~- 

Chorus: (I really don't know) 

D|------------------------- 
A|------------------------- 
F|------------------------- 
C|--3/4-3/4-3/4/-2/3/2-2/4- 
G|--3/4-3/4-3/4/-2/3/2-2/4- 
C|--3/4-3/4-3/4/-2/3/2-2/4-

 

BPM=118 

"Thirteen acres of hell." "AHHH!!" 

D|-------------------------------------|--------------------------------- 
A|-------------------------------------|--------------------------------- 
F|-------------------------------------|--------------------------------- 
C|--0-6/0/6--0-6/0/6--0-6/0/6--0-6/0/6-|-0-6/0/6--0-6/0/6--0-6/0/6--0-9~- 
G|--0-6/0/6--0-6/0/6--0-6/0/6--0-6/0/6-|-0-6/0/6--0-6/0/6--0-6/0/6--0-9~- 
C|--0-6/0/6--0-6/0/6--0-6/0/6--0-6/0/6-|-0-6/0/6--0-6/0/6--0-6/0/6--0-9~- 

Verse: 

D|------------------ 
A|------------------ 
F|------------------ 
C|--9-9-9-9-9-9-10~- 
G|--9-9-9-9-9-9-10~- 
C|--9-9-9-9-9-9-10~- 

Chorus: (I really don't know) 

D|------------------------- 
A|------------------------- 
F|------------------------- 
C|--3/4-3/4-3/4/-2/3/2-2/4- 
G|--3/4-3/4-3/4/-2/3/2-2/4- 
C|--3/4-3/4-3/4/-2/3/2-2/4-
            
Submit corrections


        What Lurks On Channel X lessons Hard to play? Try these video lessons and learn fast What Lurks On Channel X lessons
        
↑ Back to top | Tablatures and chords for acoustic guitar and electric guitar, ukulele, drums are parodies/interpretations of the original songs. You may use it for private study, scholarship, research or language learning purposes only