» » »

Rob Zombie - Super Beast Tabs

Artists:  A B C D E F G H I J K L M N O P Q R S T U V W X Y Z # 

Super Beast Tabs

(ver. 3) Click to play this song!
Rob Zombie
 Rating:
4/5 (4 votes)

 Super Beast lessons Tabs too difficult? Try these video lessons and learn fast
 
                D----------------------------------------------------------------------
A----------------------------------------------------------------------
F----------------------------------------------------------------------
C----------------------------------------------------------------------
G--8\7777777-7--\66666666--\33333333-3--\44444444----------------------
C----------------------------------------------------------------------

D----------------------------------------------------------------------
A----------------------------------------------------------------------
F----------------------------------------------------------------------
C----------------------------------------------------------------------
G--8\7777777-7--\66666666--\33333333-3--\22222222----------------------
C----------------------------------------------------------------------

Pre-Verse
D----------------------------------------------------------------------
A----------------------------------------------------------------------
F----------------------------------------------------------------------
C----------------------------------------------------------------------
G----------------------------------------------------------------------
C-1--0--1--0--0--5--1--0--1--0--0--3--1--0--1--0--0--5--1--0--1--0--0-2

Verse
D----------------------------------------------------------------------
A----------------------------------------------------------------------
F----------------------------------------------------------------------
C----------------------------------------------------------------------
G----------------------------------------------------------------------
C---0-----0--0-----0-----0-----0--0--5---------------------------------

Chorus
D----------------------------------------------------------------------
A----------------------------------------------------------------------
F----------------------------------------------------------------------
C-----888-10-888888-6--------------------------------------------------
G-----888-10-888888-6--------------------------------------------------
C-----888-10-888888-6--------------------------------------------------

The Parts Where Theres The Samples I Just Play Palm Muted Harmonics Across 3, 5,& 7
            
Submit corrections


        Super Beast lessons Hard to play? Try these video lessons and learn fast Super Beast lessons
        
↑ Back to top | Tablatures and chords for acoustic guitar and electric guitar, ukulele, drums are parodies/interpretations of the original songs. You may use it for private study, scholarship, research or language learning purposes only