Home » R » Rob Zombie »

Rob Zombie - Living Dead Girl Tabs

Artists:  A B C D E F G H I J K L M N O P Q R S T U V W X Y Z # 

Living Dead Girl Tabs

(ver. 3) Click to play this song!
Rob Zombie
 Rating:
4.2/5 (5 votes)
                (Live)
There are many different ways to play this little tune, but these are the easiest.  I
favor playing it in Drop C.  John 5 added his own sweet little riff to match the 
in the verse on the
Live album.  It’s pretty easy to figure out by ear, but anyway, here we go.

When there is a b after a note, that means to bend the previous note, just so you know haha.

UPDATE:  I figured out the bridge a while back, but I am just now getting around to 
it for you.

First off:  Drop D

INTRO/CHORUS
e|---------------------------------|------------|
b|---------------------------------|------------|
g|---------------------------------|------------|
d|-4-3-2--4-3-2--4-3-2--5-5-5------|-5-5-5------|
a|-4-3-2--4-3-2--4-3-2--3-3-3/9b9b-|-3-3-3/7b7b-|
d|-4-3-2--4-3-2--4-3-2-------------|------------|

VERSE
e|---------------------------------|
b|---------------------------------|
g|---------------------------------|
d|-4---4---4-3-0-3-4-3-0-3-4-3-0-3-|
a|-4---4---4-3-0-3-4-3-0-3-4-3-0-3-|
d|-4---4---4-3-0-3-4-3-0-3-4-3-0-3-|

BRIDGE
e|-----------------------------|
b|-----------------------------|
g|-----------------------------|
d|-4-4---4-4---4-4---4-4-4-4-5-|
a|-4-4---4-4---4-4---4-4-4-4-5-|
d|-4-4---4-4---4-4---4-4-4-4-5-|


Second:  D Tuning

INTRO/CHORUS
                       The First Ending|The Second Ending
d|-----------------------------------|--------------|
a|-----------------------------------|--------------|
f|-----------------------------------|--------------|
c|-6-5-4--6-5-4--6-5-4--7-7-7--------|-7-7-7--------|
g|-6-5-4--6-5-4--6-5-4--5-5-5/12b12b-|-5-5-5/11b11b-|
d|-4-3-2--4-3-2--4-3-2---------------|--------------|

VERSE
d|---------------------------------|
a|---------------------------------|
f|---------------------------------|
c|-6---6---6-5-2-5-6-5-2-5-6-5-2-5-|
g|-6---6---6-5-2-5-6-5-2-5-6-5-2-5-|
d|-4---4---4-3-0-3-4-3-0-3-4-3-0-3-|

BRIDGE
d|-----------------------------|
a|-----------------------------|
f|-----------------------------|
c|-6-6---6-6---6-6---6-6-6-6-7-|
g|-6-6---6-6---6-6---6-6-6-6-7-|
d|-4-4---4-4---4-4---4-4-4-4-5-|


Third:  Drop C (My favorite way, for some reason, it sounds way deeper in this tuning.)

INTRO/CHORUS
                    The First Ending|The Second Ending
d|----------------------------------|--------------|
a|----------------------------------|--------------|
f|----------------------------------|--------------|
c|-6-5-4--6-5-4--6-5-4--7-7-7-------|-7-7-7--------|
g|-6-5-4--6-5-4--6-5-4--5-5-5/12b12b|-5-5-5/11b11b-|
c|-6-5-4--6-5-4--6-5-4--------------|--------------|

VERSE
d|---------------------------------|
a|---------------------------------|
f|---------------------------------|
c|-6---6---6-5-2-5-6-5-2-5-6-5-2-5-|
g|-6---6---6-5-2-5-6-5-2-5-6-5-2-5-|
c|-6---6---6-5-2-5-6-5-2-5-6-5-2-5-|

BRIDGE
d|-----------------------------|
a|-----------------------------|
f|-----------------------------|
c|-6-6---6-6---6-6---6-6-6-6-7-|
g|-6-6---6-6---6-6---6-6-6-6-7-|
c|-6-6---6-6---6-6---6-6-6-6-7-|


And there she is, or they are.  Have fun with it, oh and John 5 added a part to match
bridge in the live version, but I havent exactly figured it out so if anyone knows it,
send it to me!  Enjoy
            
Submit corrections

↑ Back to top | Tablatures and chords for acoustic guitar and electric guitar, ukulele, drums are parodies/interpretations of the original songs. You may use it for private study, scholarship, research or language learning purposes only