Home » R » Rob Zombie »

Rob Zombie - Feel So Numb Bass

Artists:  A B C D E F G H I J K L M N O P Q R S T U V W X Y Z # 

Feel So Numb Bass

(ver. 1) Click to play this song!
Rob Zombie
 Rating:
3.6/5 (5 votes)
                Rob Zombie
The Sinister Urge

Tuning from Low to high: CGCF

                                  Intro/Chorus Play 2x

F---------------------|
C--0-0-12-10-0-10-12--|Play three times
G---------------------|
C---------------------|
Then:
F------------------|
C--8-8-8-8/10-10---|
G------------------|
C------------------|

                               Verse:Play  3x
F----------------------|
C-0-0------------------|
G----------------------|
C----------------------|

                Chorus: Play 2x
F---------------------|
C--0-0-12-10-0-10-12--|Play three times
G---------------------|
C---------------------|
Then:
F------------------|
C--8-8-8-8/10-10---|
G------------------|
C------------------|

                     2nd Verse: Play 3x
F----------------------|
C-0-0------------------|
G----------------------|
C----------------------|


  Chorus: Play 2x
F---------------------|
C--0-0-12-10-0-10-12--|Play three times
G---------------------|
C---------------------|
Then:
F------------------|
C--8-8-8-8/10-10---|
G------------------|
C------------------|


                    Bass riff during solo: Play 2x
F----------------------------------------------------------|
C--0-0-12-10-0-10-12--0-0-12-10-0-10-12--0-0-12-10-0-10-12-|
G----------------------------------------------------------|
C----------------------------------------------------------|

F-----------------|
C-8r--6r--5r--3r--|
G-----------------|
C-----------------|

                  3rd Verse: Play 3x
F----------------------|
C-0-0------------------|
G----------------------|
C----------------------|


Chorus: Play 4x
F---------------------|
C--0-0-12-10-0-10-12--|Play three times
G---------------------|
C---------------------|
Then:
F------------------|
C--8-8-8-8/10-10---|
G------------------|
C------------------|
            
Submit corrections

↑ Back to top | Tablatures and chords for acoustic guitar and electric guitar, ukulele, drums are parodies/interpretations of the original songs. You may use it for private study, scholarship, research or language learning purposes only