» » »

Rob Zombie - Blitzkrieg Bop Tabs

Artists:  A B C D E F G H I J K L M N O P Q R S T U V W X Y Z # 

Blitzkrieg Bop Tabs

(ver. 2) Click to play this song!
Rob Zombie
 Rating:
4/5 (4 votes)

 Blitzkrieg Bop lessons Tabs too difficult? Try these video lessons and learn fast
 
                intro

e-----------------------------
B-----------------------------
G----------77-999-----777-----	
D-77777777-77-999-777-777-777-
A-77777777-55-777-777-555-777-
E-55555555--------555-----555-

verse
e-----------------------------
B-----------------------------
G----------77-999-----777-----	
D-77777777-77-999-777-777-777-
A-77777777-55-777-777-555-777-
E-55555555--------555-----555-


chorus
e----------------------------------------------------------------
B----------------------------------------------------------------
G-----------------77777777---7----------77777777----------77-999-
D-777777777777777-77777777-7-7-77777777-77777777-77777777-77-999-
A-777777777777777-55555555-7-5-77777777-55555555-77777777-55-777-
E-555555555555555----------5---55555555----------55555555--------

this is my first tab so plz keep
the corrections of this tab kind
and plz rate this tab
            
Submit corrections


        Blitzkrieg Bop lessons Hard to play? Try these video lessons and learn fast Blitzkrieg Bop lessons
        
↑ Back to top | Tablatures and chords for acoustic guitar and electric guitar, ukulele, drums are parodies/interpretations of the original songs. You may use it for private study, scholarship, research or language learning purposes only