» » »

Rob Zombie - American Witch Tabs

Artists:  A B C D E F G H I J K L M N O P Q R S T U V W X Y Z # 

American Witch Tabs

(ver. 2) Click to play this song!
Rob Zombie
 Rating:
3.4/5 (9 votes)

 American Witch lessons Tabs too difficult? Try these video lessons and learn fast
 
                (Intro)
                     American Witch - Band Name
-------------------------------------------------------------------------------

Tuning:eBGDEB
                      verse
e|-------------------------------------------------------------------------------|
B|-------------------------------------------------------------------------------|
G|-------------------------------------------------------------------------------|
D|-------------------------------------------------------------------------------|
E|--------------------------------9b---------------------------------------------|
B|0-0-0-0-000-13-12-0-0-0-0-13-12----0-0-0-0-000-13-12-0-0-0-0-13-12-10----------|
2Xs        chorus
e|-----------------------------------------------------------------------------|
B|-----------------------------------------------------------------------------|
G|-----------------------------------------------------------------------------|
D|-----------------------------------------------------------------------------|
E|----12slideup----12slideup---------------------------------------------------|
B|0-0----------0-0-----------0-0-13slideup-0-0-12-13---------------------------|
2Xs        verse
e|-------------------------------------------------------------------------------|
B|-------------------------------------------------------------------------------|
G|-------------------------------------------------------------------------------|
D|-------------------------------------------------------------------------------|
E|--------------------------------9b---------------------------------------------|
B|0-0-0-0-000-13-12-0-0-0-0-13-12---0-0-0-0-000-13-12-0-0-0-0-13-12-10-----------|
2xs         chorus
e|-----------------------------------------------------------------------------|
B|-----------------------------------------------------------------------------|
G|-----------------------------------------------------------------------------|
D|-----------------------------------------------------------------------------|
E|----12slide---12-------------------------------------------------------------|
B|0-0--------0-0--0-0-13-0-0-12-13---------------------------------------------|
2Xs      guitar breaking
e|------------------------------------------------------------------------------|
B|------------------------------------------------------------------------------|
G|------------------------------------------------------------------------------|
D|------------------------------------------------------------------------------|
E|------------------------------------------------------------------------------|
B|0-3-5-0-5-7-0-7-10-0-10-12-0-12-15----------------------------------------4Xs-|
       Bridge
e|------------------15-14-15-14-15-14-15-19-15-14-15-14-15-14-15-19------------|
B|------8------8-6-------------------------------------------------------------|
G|5-6-5--5-6-5-----------------------------------------------------------------|
D|-----------------------------------------------------------------------------|
E|-----------------------------------------------------------------------------|
B|-----------------------------------------------------------------------------|
     verse
e|-----------------------------------------------------------------------------|
B|-----------------------------------------------------------------------------|
G|-----------------------------------------------------------------------------|
D|-----------------------------------------------------------------------------|
E|-------------------------------9b--------------------------------------------|
B|0-0-0-0-000-13-12-0-0-0-0-13-12---0-0-0-0-000-13-12-0-0-0-0-13-12-10---------|
2Xs    chorus
e|-------------------------------------------------------------------------------|
B|-------------------------------------------------------------------------------|
G|-------------------------------------------------------------------------------|
D|-------------------------------------------------------------------------------|
E|----12slide-----12slide--------------------------------------------------------|
B|0-0---------0-0---------0-0-13slide-0-0-12-13------------------------------8Xs-|
            
Submit corrections


        American Witch lessons Hard to play? Try these video lessons and learn fast American Witch lessons
        
↑ Back to top | Tablatures and chords for acoustic guitar and electric guitar, ukulele, drums are parodies/interpretations of the original songs. You may use it for private study, scholarship, research or language learning purposes only