Home » R » Robyn Hitchcock »

Robyn Hitchcock - Arms Of Love Tabs

Artists:  A B C D E F G H I J K L M N O P Q R S T U V W X Y Z # 

Arms Of Love Tabs

(ver. 1) Click to play this song!
Robyn Hitchcock
These are the chords for the version of Arms Of Love from Obliteration Pie

INTRO
Just fingerpick a broken D major chord

VERSE

 D    G                 D
Maybe-ee tonight you're aching
 D                 D
For someone you're dreaming of
 A           D       G
Wait til the dawn is breaking
 A       D       G
Into the arms of love


 D    G                  D 
Maybe-ee tonight you're crying
 D          G  
Like a poor wounded dove
 A        D         G
Tomorrow you'll be flying
 A        D       G
Into the arms of love

Electric Guitar Line (I)

e|----2-2-2--0-2--3-3-3--2-3--5----------------------------|
B|---------------------------------------------------------|
G|---------------------------------------------------------|
D|---------------------------------------------------------|
A|---------------------------------------------------------|
E|---------------------------------------------------------|


VERSE

 D    G                  D 
Maybe-ee tonight you're falling
 D                     G
For someone you don't know enough
 A             D       G
Honey, you'll soon be crawling
 A        D       G
Into the arms of love 


Electric Guitar Line (II)

e|----2-2-2--0-2--3-3-3--2-3--5------2-3---5-5----7-7---8-7-5-3--|
B|---------------------------------------------------------------|
G|---------------------------------------------------------------|
D|---------------------------------------------------------------|
A|---------------------------------------------------------------|
E|---------------------------------------------------------------|

e|----2-3-5-5---4-5-7-7---5-7-10--10---7--5--3-------------------|
B|---------------------------------------------------------------|
G|---------------------------------------------------------------|
D|---------------------------------------------------------------|
A|---------------------------------------------------------------|
E|---------------------------------------------------------------|


VERSE

 D    G               D
Maybe-ee your sky is fading
 D         G
It wasn't strong enough
 A               D           G      
Through all the dirt you're wading
 A        D       G
Into the arms of love
 A        D       G
Into the arms of love
 A        D       G
Into the arms of love...


Electric Guitar Line (III)
e|----2-2-2--0-2--3-3-3--2-3--5------2-3---5-5----7-7---8-7-5-3--|
B|---------------------------------------------------------------|
G|---------------------------------------------------------------|
D|---------------------------------------------------------------|
A|---------------------------------------------------------------|
E|---------------------------------------------------------------|

e|----2-3-5-5---4-5-7-7---5-7-10--10---7--5--3-------------------|
B|---------------------------------------------------------------|
G|---------------------------------------------------------------|
D|---------------------------------------------------------------|
A|---------------------------------------------------------------|
E|---------------------------------------------------------------|


Repeat to fade out
            
Submit corrections

↑ Back to top | Tablatures and chords for acoustic guitar and electric guitar, ukulele, drums are parodies/interpretations of the original songs. You may use it for private study, scholarship, research or language learning purposes only