» » »

Rob Thomas - Streetcorner Symphony Tabs

Artists:  A B C D E F G H I J K L M N O P Q R S T U V W X Y Z # 

Streetcorner Symphony Tabs

(ver. 2) Click to play this song!
Rob Thomas
 Rating:
4/5 (4 votes)
                (Intro)
-------------------------------------------------------------------------------
                             Streetcorner Symphony - Rob Thomas
-------------------------------------------------------------------------------

Tuning:Normal

This part is played during Rob's singing, and repeated almost exactly the same 
the whole song.  On any of the double string notes, feel free to take off the bottom string 
it won't effect anything.  Listen to the song for the rhythm.

(3) - play softly

e|---------------------------------------------------------------------------|
B|-------------------------------------------------1------1-----3-1----------|
G|------------1-1h3p1-1h3--3/5-1---------------1h3-1--1h3-1-----3-1----------|
D|-------1/3-----------------------(3)---------1h3----1h3--------------------|
A|--3~-----------------------------------------------------------------------|
E|---------------------------------------------------------------------------|

e|---------------------------------------------------------------------------|
B|---------------------------------------------------------------------------|
G|--3-3----------------1-1-----------1-1---------2/3-3-3-3-------------------|
D|--3-3------------1h3-----4-----1h3-----3-------2/3-3-3-3-------------------|
A|------3---------------------------------------------------1----------------|
E|---------------------------------------------------------------------------|
            
Submit corrections

↑ Back to top | Tablatures and chords for acoustic guitar and electric guitar, ukulele, drums are parodies/interpretations of the original songs. You may use it for private study, scholarship, research or language learning purposes only