» » »

Rob Scallon - Super Metal Auditions Tabs

Artists:  A B C D E F G H I J K L M N O P Q R S T U V W X Y Z # 

Super Metal Auditions Tabs

(ver. 1) Click to play this song!
Rob Scallon
 Rating:
4/5 (4 votes)

 Super Metal Auditions  lessons Tabs too difficult? Try these video lessons and learn fast
 
                D#|----------------------------|
A#|----------------------------|
F#|----------------------------|
C#|----------------------------|
G#|--3M----------6M------------|
D#|--1M----------4M------------|


----------------------------------------------------|
----------------------------------------------------|
----------------------------------------------------|
----------------------------------------------------|
--7-----------------------------7h-8--7-------------|
--5-----------5M-8M-5M-0M-5M-0M-------4-------------|


----------------------------------------------------|
----------------------------------------------------|
----------------------------------------------------|
----------------------------------------------------|
--------------------7h-8--7-----------3M----6M------|
--5M-8M-5M-0M-5M-0M-------4-----0M-0M-1M----4M------|


----------------------------------------------------|
----------------------------------------------------|
----------------------------------------------------|
----------------------------------------------------|
--7-----------------------------7h-8--7-------------|
--5-----------5M-8M-5M-0M-5M-0M-------4-------------|


----------------------------------------------------|
----------------------------------------------------|
----------------------------------------------------|
----------------------------------------------------|
--------------------6h-7--6-----------------3M------|
--5M-8M-5M-0M-5M-0M-------4-----------------1M------|


----------------------------------------------------|
----------------------------------------------------|
----------------------------------------------------|
----------------------------------------------------|
--7-----------------------------7h-8--7-------------|
--5-----------5M-8M-5M-0M-5M-0M-------4-------------|


----------------------------------------------------|
----------------------------------------------------|
----------------------------------------------------|
----------------------------------------------------|
--------------------7h-8--7-----------3M----6M------|
--5M-8M-5M-0M-5M-0M-------4-----0M-0M-1M----4M------|


----------------------------------------------------|
----------------------------------------------------|
----------------------------------------------------|
----------------------------------------------------|
--7-----------------------------7h-8--7-------------|
--5-----------5M-8M-5M-0M-5M-0M-------4-------------|


----------------------------------------------------|
----------------------------------------------------|
----------------------------------------------------|
----------------------------------------------------|
--------------------6h-7--6-----------------3M------|
--5M-8M-5M-0M-5M-0M-------4-----------------1M------|


----------------------------------------------------|
----------------------------------------------------|
----------------------------------------------------|
----------------------------------------------------|
----------------------------------------------------|
--5~----------5M-8M-5M-0M-5M-0M-7h-8--5~------------|


----------------------------------------------------|
----------------------------------------------------|
----------------------------------------------------|
----------------------------------------------------|
----------------------------------------------------|
--5M-8M-5M-0M-5M-0M-7h-8--4-----0M-0M-1M----4M------|


----------------------------------------------------|
----------------------------------------------------|
----------------------------------------------------|
----------------------------------------------------|
----------------------------------------------------|
--5~----------5M-8M-5M-0M-5M-0M-7h-8--5~------------|


----------------------------------------------------|
----------------------------------------------------|
----------------------------------------------------|
--------------------------------------------6-------|
--------------------------------5--7--8-------------|
--5M-8M-5M-0M-5M-0M-7h-8--4-------------------------|


----------------------------------------------------|
----------------------------------------------------|
-----------------------7M-------------9~------------|
--7~----------7M-9M-10M---10M9M-7M-7M---------------|
----------------------------------------------------|
----------------------------------------------------|


----------------------------------------------------|
----------------------------------------------------|
-----------7M-------------9~----------10~-----------|
--7M-9M-10M---10M9M-7M-7M-------7--7--------7M-7M---|
----------------------------------------------------|
----------------------------------------------------|


----------------------------------------------------|
----------------------------------------------------|
--9~-------------------7M-------------9~------------|
--------------7M-9M-10M---10M9M-7M-7M---------------|
----------------------------------------------------|
----------------------------------------------------|


----------------------------|
----------------------------|
--10----------9s------------|
----------------------------|
----------------------------|
----------------------------|


----------------------------------------------------|
----------------------------------------------------|
----------------------------------------------------|
----------------------------------------------------|
--7-----------------------------7h-8--7-------------|
--5-----------5M-8M-5M-0M-5M-0M-------4-------------|


----------------------------------------------------|
----------------------------------------------------|
----------------------------------------------------|
----------------------------------------------------|
--------------------7h-8--7-----------3M----6M------|
--5M-8M-5M-0M-5M-0M-------4-----0M-0M-1M----4M------|


----------------------------------------------------|
----------------------------------------------------|
----------------------------------------------------|
----------------------------------------------------|
--7-----------------------------7h-8--7-------------|
--5-----------5M-8M-5M-0M-5M-0M-------4-------------|


----------------------------------------------------|
----------------------------------------------------|
----------------------------------------------------|
--------------------------------------------3s------|
--------------------6h-7--6-------------------------|
--5M-8M-5M-0M-5M-0M-------4-------------------------|


----------------------------------------------------|
----------------------------------------------------|
-----------------------7M-------------9~------------|
--7~----------7M-9M-10M---10M9M-7M-7M---------------|
----------------------------------------------------|
----------------------------------------------------|


----------------------------------------------------|
----------------------------------------------------|
-----------7M-------------9~----------10~-----------|
--7M-9M-10M---10M9M-7M-7M-------7--7--------7M-7M---|
----------------------------------------------------|
----------------------------------------------------|


----------------------------------------------------|
----------------------------------------------------|
--9~-------------------7M-------------9~------------|
--------------7M-9M-10M---10M9M-7M-7M---------------|
----------------------------------------------------|
----------------------------------------------------|


----------------------------|----------------------------|----------|
----------------------------|----------------------------|----------|
----------------------------|----------------------------|----------|
----------------------------|----------------------------|----------|
--7--8--7--6--2-------------|--7-----------7-------------|--0--0----|
--7--8--7--4--0-------------|--5--------4--4-------------|--1--1----|


----------------------------|----------|----------------------------|----------|
----------------------------|----------|----------------------------|----------|
----------------------------|----------|----------------------------|----------|
----------------------------|----------|----------------------------|----------|
--7-----------7-------------|--3--5----|--7-----------7-------------|--0--0----|
--5--------4--4-------------|--5--7----|--5--------4--4-------------|--1--1----|


----------------------------|----------|----------------------------|
----------------------------|----------|----------------------------|
----------------------------|----------|----------------------------|
----------------------------|--7--6----|----------------------------|
--7-----------7-------------|--8--7----|--7M-7M-7M-7M-8M-8M-8M-8M---|
--5--------4--4-------------|--8--7----|--5M-5M-5M-4M-4M-4M-4M-4M---|


----------------------|----------------------------|
----------------------|----------------------------|
----------------------|----------------------------|
----------------------|----------------------------|
--0M-0M-0M-0M-0M-0M---|--7M-7M-7M-7M-8M-8M-8M-8M---|
--1M-1M-1M-1M-1M-1M---|--5M-5M-5M-4M-4M-4M-4M-4M---|


----------------------------------------------------------------------------|
----------------------------------------------------------------------------|
----------------------------------------------------------------------------|
----------------------------------------------------------------------------|
--3M----------3M----------3M----------5M-------5M-------5M-------5M---------|
--5M----------5M----------5M----------7M-------7M-------7M-------7M---------|


----------------------------|----------------------|
----------------------------|----------------------|
----------------------------|----------------------|
----------------------------|----------------------|
--7M-7M-7M-7M-8M-8M-8M-8M---|--0M-0M-0M-0M-0M-0M---|
--5M-5M-5M-4M-4M-4M-4M-4M---|--1M-1M-1M-1M-1M-1M---|


----------------------------|----------------------------|
----------------------------|----------------------------|
----------------------------|----------------------------|
----------------------------|----------------------------|
--7M-7M-7M-7M-8M-8M-8M-8M---|--3M----------6M------------|
--5M-5M-5M-4M-4M-4M-4M-4M---|--1M----------4M------------|


----------------------------||
----------------------------||
----------------------------||
----------------------------||
--7-------------------------||
--5-------------------------||
            
Submit corrections


        Super Metal Auditions  lessons Hard to play? Try these video lessons and learn fast Super Metal Auditions  lessons
        
↑ Back to top | Tablatures and chords for acoustic guitar and electric guitar, ukulele, drums are parodies/interpretations of the original songs. You may use it for private study, scholarship, research or language learning purposes only