» » »

Rob Scallon - Ragtime 2016 Tabs

Artists:  A B C D E F G H I J K L M N O P Q R S T U V W X Y Z # 

Ragtime 2016 Tabs

(ver. 1) Click to play this song!
Rob Scallon
 Rating:
4.3/5 (26 votes)

 Ragtime 2016  lessons Tabs too difficult? Try these video lessons and learn fast
 
                                                                                  
E |----|----------------------------|----------------------------|
B |----|-----0----------------------|-----0----------------------|
G |----|--0-----0-----------0-------|--0-----0-----------0-------|
D |----|--2--------2-----2-----2----|--2--------2-----2-----2----|
A |----|--3-----------3-------------|--3-----------3-------------|
E |----|--5-------------------------|--5-------------------------|

                                                          
----------------------------|----------------------------|
-----0----------------------|-----0----------------------|
--0-----0-----------0-------|--0-----0-----------0-------|
--2--------2-----2-----2----|--2--------2-----2-----2----|
--3-----------3-------------|--3-----------3-------------|
--3-------------------------|--3-------------------------|

                                                          
----------------------------|----------------------------|
-----0----------------------|-----0----------------------|
--0-----0-----------0-------|--0-----0-----------0-------|
--2--------2-----2-----2----|--2--------2-----2-----2----|
--3-----------3-------------|--3-----------3-------------|
--5-------------------------|--5-------------------------|

                                                          
----------------------------|----------------------------|
-----0----------------------|-----0----------------------|
--0-----0-----------0-------|--0-----0-----------0-------|
--2--------2-----2-----2----|--2--------2-----2-----2----|
--3-----------3-------------|--3-----------3-------------|
--3-------------------------|--3-------------------------|

                                                     
----------------------------------------------------|
--------------0g----------------0g------------------|
--------------0>----------------0>----------0-------|
--2g-2g-2g----2>----2g-2g-2g----2>----2g-2g----2----|
--3M-3M-3M----3>----3M-3M-3M----3>----3M-3M---------|
--5M-5M-5M----5>----5M-5M-5M----5>----5M-5M---------|

                                                     
----------------------------------------------------|
--------------0g----------------0g------------------|
--------------0>----------------0>----------0-------|
--2g-2g-2g----2>----2g-2g-2g----2>----2g-2g----2----|
--3M-3M-3M----3>----3M-3M-3M----3>----3M-3M---------|
--5M-5M-5M----5>----5M-5M-5M----5>----5M-5M---------|

                                                     
----------------------------------------------------|
--------------0g----------------0g------------------|
--------------0>----------------0>----------0-------|
--2g-2g-2g----2>----2g-2g-2g----2>----2g-2g----2----|
--3M-3M-3M----3>----3M-3M-3M----3>----3M-3M---------|
--3M-3M-3M----3>----3M-3M-3M----3>----3M-3M---------|

                                                     
----------------------------------------------------|
--------------0g----------0-------------------------|
--------------0>-------------0--------0-------------|
--2g-2g-2g----2>----2g-2g----------------2----------|
--3M-3M-3M----3>----3M-3M-------3M-3M-------3-------|
--3M-3M-3M----3>----3M-3M-------3M-3M----------0g---|

                                                     
----------------------------------------------------|
--------------0g----------------0g------------------|
--------------0>----------------0>----------0-------|
--2g-2g-2g----2>----2g-2g-2g----2>----2g-2g----2----|
--3M-3M-3M----3>----3M-3M-3M----3>----3M-3M---------|
--5M-5M-5M----5>----5M-5M-5M----5>----5M-5M---------|

                                                     
----------------------------------------------------|
--------------0g----------------0g------------------|
--------------0>----------------0>----------0-------|
--2g-2g-2g----2>----2g-2g-2g----2>----2g-2g----2----|
--3M-3M-3M----3>----3M-3M-3M----3>----3M-3M---------|
--5M-5M-5M----5>----5M-5M-5M----5>----5M-5M---------|

                                                     
----------------------------------------------------|
--------------0g----------------0g------------------|
--------------0>----------------0>----------0-------|
--2g-2g-2g----2>----2g-2g-2g----2>----2g-2g----2----|
--3M-3M-3M----3>----3M-3M-3M----3>----3M-3M---------|
--3M-3M-3M----3>----3M-3M-3M----3>----3M-3M---------|

                                                     
----------------------------------------------------|
--------------0g----------0-------------------------|
--------------0>-------------0--------0-------------|
--2g-2g-2g----2>----2g-2g----------------2----------|
--3M-3M-3M----3>----3M-3M-------3M-3M-------3-------|
--3M-3M-3M----3>----3M-3M-------3M-3M----------0g---|

                                                                                
--------------------------------------------------------------------------------
--------------------------------------------------------------------------------
--------------------------------------------------------------------------------
--------------------------------------2-----------------------------------------
--3-----------------x-----x-----------2-----------------------------2-----------
--1--------------------x--0M----------0-----------------------0-----------------

                                                                          
--------------------|----------------------------------------------------|
--------------------|----------------------------------------------------|
--------------------|--0-----0--0--0--0--0-------------------------------|
--------------------|--2-----2--2--2--2--2-------------------------------|
3-----------3g------|--3-----3--3--3--3--3--------------3-----2----------|
--------------------|--5-----------------3-----------0-------------------|

                                                                                
--------------------------------------------------------------------------------
--------------------------------------------------------------------------------
--------------------------------------------------------------------------------
--------------------------------------2-----------------------------------------
--3-----------------x-----x-----------2-----------------------------2-----------
--1--------------------x--0M----------0-----------------------0-----------------

                                                                          
--------------------|----------------------------------------------------|
--------------------|--0-----0--0--0--0--0-------------------------------|
--------------------|--0-----0--0--0--0--0-------------------------------|
--------------------|--2-----2--2--2--2--2-------------------------------|
3-----------3g------|--3-----3--3--3--3--3--------------3-----2-----0----|
--------------------|--5-----------------3-----------0-------------------|

                                                                                
--------------------------------------------------------------------------------
--------------------------------------------------------------------------------
--------------------------------------------------------------------------------
--------------2-----------------------------------------------------------------
--------------------------------3-----------2-----------------3-----------2h----
--1M-1M-1M----------1M-1M-1M----------1M----------1M-1M-1M----------1M----------

                     
--------------------|
--------------------|
--------------------|
--------------------|
------------0-------|
--------------------|

                                                                                
--------------------------------------------------------------------------------
--------------------------------------------------------------------------------
--------------------------------------------------------------------------------
--------------2-----------------------------------------------------------------
--------------------------------3-----------2-----------------3-----------2h----
--0M-0M-0M----------0M-0M-0M----------0M----------0M-0M-0M----------0M----------

                     
--------------------|
--------------------|
--------------------|
--------------------|
------------0-------|
--------------------|

                                                                                
--------------------------------------------------------------------------------
--------------------------------------------------------------------------------
--------------------------------------------------------------------------------
--------------2-----------------------------------------------------------------
--------------------------------3-----------2-----------------3-----------2h----
--1M-1M-1M----------1M-1M-1M----------1M----------1M-1M-1M----------1M----------

                     
--------------------|
--------------------|
--------------------|
--------------------|
------------0-------|
--------------------|

                                                                                
--------------------------------------------------------------------------------
--------------------------------------------------------------------------------
--------------------------------------------------------------------------------
--------------2-----------------------------------------------------------------
--------------------------------3-----------2-----------------3-----------2h----
--0M-0M-0M----------0M-0M-0M----------0M----------0M-0M-0M----------0M----------

                     
--------------------|
--------------------|
--------------------|
--------------------|
------------0-------|
--------------------|

                                                                                
--------------------------------------------------------------------------------
--------------------------------------------------------------------------------
--------------------------------------------------------------------------------
--------------2-----------------------------------------------------------------
--------------------------------3-----------2-----------------3-----------2-----
--1M-1M-1M----------1M-1M-1M----------1M----------1M-1M-1M----------1M----------

                     
--------------------|
--------------------|
--------------------|
--------------------|
0-----2-----3-------|
--------------------|

                                                                                
--------------------------------------------------------------------------------
--------------------------------------------------------------------------------
--------------------------------------------------------------------------------
--------------2-----------------------------------------------------------------
--------------------------------3-----------2-----------------3-----------2h----
--0M-0M-0M----------0M-0M-0M----------0M----------0M-0M-0M----------0M----------

                     
--------------------|
--------------------|
--------------------|
--------------------|
------------0-------|
--------------------|

                                                                                
--------------------------------------------------------------------------------
--------------------------------------------------------------------------------
--------------------------------------------------------------------------------
--------------2-----------------------------------------------------------------
--------------------------------3-----------2-----------------3-----------2-----
--1M-1M-1M----------1M-1M-1M----------1M----------1M-1M-1M----------1M----------

                     
--------------------|
--------------------|
--------------------|
--------------------|
0-----2-----3-------|
--------------------|

                                                                                
--------------------------------------------------------------------------------
--------------------------------------------------------------------------------
--------------------------------------------------------------------------------
--------------2-----------------------------------------------------------------
--------------------------------3-----------2-----------------3-----------2h----
--0M-0M-0M----------0M-0M-0M----------0M----------0M-0M-0M----------0M----------

                     
--------------------|
--------------------|
--------------------|
--------------------|
------------0-------|
--------------------|

                                                                                
--------------------------------------------------------------------------------
--------------------------------------------------------------------------------
--------------------------------------------------------------------------------
--------------------------2-----------------------------------------------2-----
--------------3-----------------------------------------------3-----------------
--5--5--5-----------5-----------5--5--5--5--5--5--4--4--4-----------4-----------

                     
--------------------|
--------------------|
--------------------|
--------------------|
--------------------|
4--4--4--4--4--4----|

                                                                                
--------------------------------------------------------------------------------
--------------------------------------------------------------------------------
--------------------------------------------------------------------------------
--------------------------2-----------------------------------------------2-----
--------------3-----------------------------------------------3-----------------
--3--3--3-----------3-----------3--3--3--3--3--3--2--2--2-----------2-----------

                     
--------------------|
--------------------|
--------------------|
--------------------|
--------------------|
2--2--2--2--2--2----|

                                                                                
--------------------------------------------------------------------------------
--------------------------------------------------------------------------------
--------------------------------------------------------------------------------
--------------------------------------------------2-----------------2-----------
--------------3-----------------3-----------------------------------3-----------
--1--1--1-----------1--1--1-----------1--1--1-----------1--1--1-----------------

                     
--------------------|
--------------------|
--------------------|
--------------------|
--------------------|
------1--1--1--1----|

                                                                                
--------------------------------------------------------------------------------
--------------------------------------------------------------------------------
--------------------------------------------------------------------------------
--------------2-----------------2-----------------2-----------------2-----------
--------------2-----------------2-----------------2-----------------2-----------
--0--0--0-----0-----0--0--0-----0-----0--0--0-----0-----0--0--0-----0L-------0--

                                                                          
--------------------|----------------------------------------------------|
--------------------|--------------0g----------------0g------------------|
--------------------|--------------0>----------------0>----------0-------|
--------------------|--2g-2g-2g----2>----2g-2g-2g----2>----2g-2g----2----|
--------------------|--3M-3M-3M----3>----3M-3M-3M----3>----3M-3M---------|
0--0--0--0--0--0----|--5M-5M-5M----5>----5M-5M-5M----5>----5M-5M---------|

                                                     
----------------------------------------------------|
--------------0g----------------0g------------------|
--------------0>----------------0>----------0-------|
--2g-2g-2g----2>----2g-2g-2g----2>----2g-2g----2----|
--3M-3M-3M----3>----3M-3M-3M----3>----3M-3M---------|
--5M-5M-5M----5>----5M-5M-5M----5>----5M-5M---------|

                                                     
----------------------------------------------------|
--------------0g----------------0g------------------|
--------------0>----------------0>----------0-------|
--2g-2g-2g----2>----2g-2g-2g----2>----2g-2g----2----|
--3M-3M-3M----3>----3M-3M-3M----3>----3M-3M---------|
--3M-3M-3M----3>----3M-3M-3M----3>----3M-3M---------|

                                                     
----------------------------------------------------|
--------------0g----------0-------------------------|
--------------0>-------------0--------0-------------|
--2g-2g-2g----2>----2g-2g----------------2----------|
--3M-3M-3M----3>----3M-3M-------3M-3M-------3-------|
--3M-3M-3M----3>----3M-3M-------3M-3M----------0g---|

                                                     
----------------------------------------------------|
--------------0g----------------0g------------------|
--------------0>----------------0>----------0-------|
--2g-2g-2g----2>----2g-2g-2g----2>----2g-2g----2----|
--3M-3M-3M----3>----3M-3M-3M----3>----3M-3M---------|
--5M-5M-5M----5>----5M-5M-5M----5>----5M-5M---------|

                                                     
----------------------------------------------------|
--------------0g----------------0g------------------|
--------------0>----------------0>----------0-------|
--2g-2g-2g----2>----2g-2g-2g----2>----2g-2g----2----|
--3M-3M-3M----3>----3M-3M-3M----3>----3M-3M---------|
--5M-5M-5M----5>----5M-5M-5M----5>----5M-5M---------|

                                                     
----------------------------------------------------|
--------------0g----------------0g------------------|
--------------0>----------------0>----------0-------|
--2g-2g-2g----2>----2g-2g-2g----2>----2g-2g----2----|
--3M-3M-3M----3>----3M-3M-3M----3>----3M-3M---------|
--3M-3M-3M----3>----3M-3M-3M----3>----3M-3M---------|

                                                     
----------------------------------------------------|
--------------0g----------0-------------------------|
--------------0>-------------0--------0-------------|
--2g-2g-2g----2>----2g-2g----------------2----------|
--3M-3M-3M----3>----3M-3M-------3M-3M-------3-------|
--3M-3M-3M----3>----3M-3M-------3M-3M----------0g---|

                                                                                
--------------------------------------------------------------------------------
--------------------------------------------------------------------------------
--------------------------------------------------------------------------------
--------------------------------------2-----------------------------------------
--3-----------------x-----x-----------2-----------------------------2-----------
--1--------------------x--0M----------0-----------------------0-----------------

                                                                          
--------------------|----------------------------------------------------|
--------------------|--0-----0--0--0--0--0-------------------------------|
--------------------|--0-----0--0--0--0--0-------------------------------|
--------------------|--2-----2--2--2--2--2-------------------------------|
3-----------3g------|--3-----3--3--3--3--3--------------3-----2----------|
--------------------|--5-----------------3-----------0-------------------|

                                                                                
--------------------------------------------------------------------------------
--------------------------------------------------------------------------------
--------------------------------------------------------------------------------
--------------------------------------2-----------------------------------------
--3-----------------x-----x-----------2-----------------------------2-----------
--1--------------------x--0M----------0-----------------------0-----------------

                                                                          
--------------------|--0-----0--0--0--0--0-------------------------------|
--------------------|--0-----0--0--0--0--0-------------------------------|
--------------------|--0-----0--0--0--0--0-------------------------------|
--------------------|--2-----2--2--2--2--2-------------------------------|
3-----------3g------|--3-----3--3--3--3--3--------------3-----2-----0----|
--------------------|--5-----------------3-----------0-------------------|

                                                                                
--------------------------------------------------------------------------------
--------------------------------------------------------------------------------
--------------------------------------------------------------------------------
--------------2-----------------------------------------------------------------
--------------------------------3-----------2-----------------3-----------2h----
--1M-1M-1M----------1M-1M-1M----------1M----------1M-1M-1M----------1M----------

                     
--------------------|
--------------------|
--------------------|
--------------------|
------------0-------|
--------------------|

                                                                                
--------------------------------------------------------------------------------
--------------------------------------------------------------------------------
--------------------------------------------------------------------------------
--------------2-----------------------------------------------------------------
--------------------------------3-----------2-----------------3-----------2h----
--0M-0M-0M----------0M-0M-0M----------0M----------0M-0M-0M----------0M----------

                     
--------------------|
--------------------|
--------------------|
--------------------|
------------0-------|
--------------------|

                                                                                
--------------------------------------------------------------------------------
--------------------------------------------------------------------------------
--------------------------------------------------------------------------------
--------------2-----------------------------------------------------------------
--------------------------------3-----------2-----------------3-----------2h----
--1M-1M-1M----------1M-1M-1M----------1M----------1M-1M-1M----------1M----------

                     
--------------------|
--------------------|
--------------------|
--------------------|
------------0-------|
--------------------|

                                                                                
--------------------------------------------------------------------------------
--------------------------------------------------------------------------------
--------------------------------------------------------------------------------
--------------2-----------------------------------------------------------------
--------------------------------3-----------2-----------------3-----------2h----
--0M-0M-0M----------0M-0M-0M----------0M----------0M-0M-0M----------0M----------

                     
--------------------|
--------------------|
--------------------|
--------------------|
------------0-------|
--------------------|

                                                                                
--------------------------------------------------------------------------------
--------------------------------------------------------------------------------
--------------------------------------------------------------------------------
--------------2-----------------------------------------------------------------
--------------------------------3-----------2-----------------3-----------2-----
--1M-1M-1M----------1M-1M-1M----------1M----------1M-1M-1M----------1M----------

                     
--------------------|
--------------------|
--------------------|
--------------------|
0-----2-----3-------|
--------------------|

                                                                                
--------------------------------------------------------------------------------
--------------------------------------------------------------------------------
--------------------------------------------------------------------------------
--------------2-----------------------------------------------------------------
--------------------------------3-----------2-----------------3-----------2h----
--0M-0M-0M----------0M-0M-0M----------0M----------0M-0M-0M----------0M----------

                     
--------------------|
--------------------|
--------------------|
--------------------|
------------0-------|
--------------------|

                                                                                
--------------------------------------------------------------------------------
--------------------------------------------------------------------------------
--------------------------------------------------------------------------------
--------------2-----------------------------------------------------------------
--------------------------------3-----------2-----------------3-----------2-----
--1M-1M-1M----------1M-1M-1M----------1M----------1M-1M-1M----------1M----------

                     
--------------------|
--------------------|
--------------------|
--------------------|
0-----2-----3-------|
--------------------|

                                                                                
--------------------------------------------------------------------------------
--------------------------------------------------------------------------------
--------------------------------------------------------------------------------
--------------2-----------------------------------------------------------------
--------------------------------3-----------2-----------------3-----------2h----
--0M-0M-0M----------0M-0M-0M----------0M----------0M-0M-0M----------0M----------

                     
--------------------|
--------------------|
--------------------|
--------------------|
------------0-------|
--------------------|

                                                                                
--------------------------------------------------------------------------------
--------------------------------------------------------------------------------
--------------------------------------------------------------------------------
--------------------------2-----------------------------------------------2-----
--------------3-----------------------------------------------3-----------------
--5--5--5-----------5-----------5--5--5--5--5--5--4--4--4-----------4-----------

                     
--------------------|
--------------------|
--------------------|
--------------------|
--------------------|
4--4--4--4--4--4----|

                                                                                
--------------------------------------------------------------------------------
--------------------------------------------------------------------------------
--------------------------------------------------------------------------------
--------------------------2-----------------------------------------------2-----
--------------3-----------------------------------------------3-----------------
--3--3--3-----------3-----------3--3--3--3--3--3--2--2--2-----------2-----------

                     
--------------------|
--------------------|
--------------------|
--------------------|
--------------------|
2--2--2--2--2--2----|

                                                                                
--------------------------------------------------------------------------------
--------------------------------------------------------------------------------
--------------------------------------------------------------------------------
--------------------------------------------------2-----------------2-----------
--------------3-----------------3-----------------------------------3-----------
--1--1--1-----------1--1--1-----------1--1--1-----------1--1--1-----------------

                     
--------------------|
--------------------|
--------------------|
--------------------|
--------------------|
------1--1--1--1----|

                                                                                
--------------------------------------------------------------------------------
--------------------------------------------------------------------------------
--------------------------------------------------------------------------------
--------------2-----------------2-----------------2-----------------2-----------
--------------2-----------------2-----------------2-----------------2-----------
--0--0--0-----0-----0--0--0-----0-----0--0--0-----0-----0--0--0-----0L-------0--

                     
--------------------|
--------------------|
--------------------|
--------------------|
--------------------|
0--0--0--0--0--0----|

                                                                                
--------------------------------------------------------------------------------
--------------------------------------------------------------------------------
--------------------------------------------------------------------------------
--------------------------2-----------------------------------------------2-----
--------------3-----------------------------------------------3-----------------
--5--5--5-----------5-----------5--5--5--5--5--5--4--4--4-----------4-----------

                     
--------------------|
--------------------|
--------------------|
--------------------|
--------------------|
4--4--4--4--4--4----|

                                                                                
--------------------------------------------------------------------------------
--------------------------------------------------------------------------------
--------------------------------------------------------------------------------
--------------------------2-----------------------------------------------2-----
--------------3-----------------------------------------------3-----------------
--3--3--3-----------3-----------3--3--3--3--3--3--2--2--2-----------2-----------

                     
--------------------|
--------------------|
--------------------|
--------------------|
--------------------|
2--2--2--2--2--2----|

                                                                                
--------------------------------------------------------------------------------
--------------------------------------------------------------------------------
--------------------------------------------------------------------------------
--------------------------------------------------2-----------------2-----------
--------------3-----------------3-----------------------------------3-----------
--1--1--1-----------1--1--1-----------1--1--1-----------1--1--1-----------------

                     
--------------------|
--------------------|
--------------------|
--------------------|
--------------------|
1--1--1--1--1--1----|

                                                                                
--------------------------------------------------------------------------------
--------------------------------------------------------------------------------
--------------------------------------------------------------------------------
--------------2-----------------2-----------------2-----------------2-----------
--------------2-----------------2-----------------2-----------------2-----------
--0--0--0-----0-----0--0--0-----0-----0--0--0-----0-----0--0--0-----0L-------0--

                     
--------------------|
--------------------|
--------------------|
--------------------|
--------------------|
0--0--0--0--0--0----|

                                                                                
--------------------------------------------------------------------------------
--------------------------------------------------------------------------------
--------------------------------------------------------------------------------
--------------2-----------------2-----------------2-----------------2-----------
--------------2-----------------2-----------------2-----------------2-----------
--0--0--0-----0-----0--0--0-----0-----0--0--0-----0-----0--0--0-----0L-------0--

                                                                          
--------------------|----------------------------------------------------|
--------------------|--------------0g----------------0g------------------|
--------------------|--------------0>----------------0>----------0-------|
--------------------|--2g-2g-2g----2>----2g-2g-2g----2>----2g-2g----2----|
--------------------|--3M-3M-3M----3>----3M-3M-3M----3>----3M-3M---------|
0--0--0--0--0--0----|--5M-5M-5M----5>----5M-5M-5M----5>----5M-5M---------|

                                                     
----------------------------------------------------|
--------------0g----------------0g------------------|
--------------0>----------------0>----------0-------|
--2g-2g-2g----2>----2g-2g-2g----2>----2g-2g----2----|
--3M-3M-3M----3>----3M-3M-3M----3>----3M-3M---------|
--5M-5M-5M----5>----5M-5M-5M----5>----5M-5M---------|

                                                     
----------------------------------------------------|
--------------0g----------------0g------------------|
--------------0>----------------0>----------0-------|
--2g-2g-2g----2>----2g-2g-2g----2>----2g-2g----2----|
--3M-3M-3M----3>----3M-3M-3M----3>----3M-3M---------|
--3M-3M-3M----3>----3M-3M-3M----3>----3M-3M---------|

                                                     
----------------------------------------------------|
--------------0g----------0-------------------------|
--------------0>-------------0--------0-------------|
--2g-2g-2g----2>----2g-2g----------------2----------|
--3M-3M-3M----3>----3M-3M-------3M-3M-------3-------|
--3M-3M-3M----3>----3M-3M-------3M-3M----------0g---|

                                                     
----------------------------------------------------|
--------------0g----------------0g------------------|
--------------0>----------------0>----------0-------|
--2g-2g-2g----2>----2g-2g-2g----2>----2g-2g----2----|
--3M-3M-3M----3>----3M-3M-3M----3>----3M-3M---------|
--1M-1M-1M----1>----1M-1M-1M----1>----1M-1M---------|

                                                     
----------------------------------------------------|
--------------0g----------------0g------------------|
--------------0>----------------0>----------0-------|
--2g-2g-2g----2>----2g-2g-2g----2>----2g-2g----2----|
--3M-3M-3M----3>----3M-3M-3M----3>----3M-3M---------|
--1M-1M-1M----1>----1M-1M-1M----1>----1M-1M---------|

                                                     
----------------------------------------------------|
--------------0g----------------0g------------------|
--------------0>----------------0>----------0-------|
--0g-0g-0g----0>----0g-0g-0g----0>----0g-0g----0----|
--3M-3M-3M----3>----3M-3M-3M----3>----3M-3M---------|
--3M-3M-3M----3>----3M-3M-3M----3>----3M-3M---------|

                                                     
----------------------------------------------------|
--------------0g----------------0g------------------|
--------------0>----------------0>------------------|
--0g-0g-0g----0>----0g-0g-0g----0>----0g-0g---------|
--3M-3M-3M----3>----3M-3M-3M----3>----3M-3M-3-------|
--3M-3M-3M----3>----3M-3M-3M----3>----3M-3M---------|

                                                     
----------------------------------------------------|
--------------0g----------------0g------------------|
--------------0>----------------0>------------------|
--2g-2g-2g----2>----2g-2g-2g----2>----2g-2g----2----|
--3M-3M-3M----3>----3M-3M-3M----3>----3M-3M---------|
--1M-1M-1M----1>----1M-1M-1M----1>----1M-1M---------|

                                                     
----------------------------------------------------|
--------------0g----------------0g------------------|
--------------0>----------------0>------------------|
--2g-2g-2g----2>----2g-2g-2g----2>----2g-2g----2----|
--3M-3M-3M----3>----3M-3M-3M----3>----3M-3M---------|
--1M-1M-1M----1>----1M-1M-1M----1>----1M-1M---------|

                                                     
----------------------------------------------------|
--------------0g----------------0g------------------|
--------------0>----------------0>------------------|
--2g-2g-2g----2>----2g-2g-2g----2>----2g-2g----2----|
--3M-3M-3M----3>----3M-3M-3M----3>----3M-3M---------|
--1M-1M-1M----1>----1M-1M-1M----1>----1M-1M---------|

                                                       ^
----------------------------------------------------|--0L---|--0----|
--------------0g----------------0g------------------|--0L---|--0----|
--------------0>----------------0>------------------|--0L---|--0----|
--2g-2g-2g----2>----2g-2g-2g----2>------------------|--2L---|--2----|
--3M-3M-3M----3>----3M-3M-3M----3>------------------|--3L---|--3----|
--1M-1M-1M----1>----1M-1M-1M----1>------------------|--5L---|--5----|


--0g------------------------|----||
--0-------------------------|----||
--0-------------------------|----||
--2-------------------------|----||
--3-------------------------|----||
--5-------------------------|----||

            
Submit corrections


        Ragtime 2016  lessons Hard to play? Try these video lessons and learn fast Ragtime 2016  lessons
        
↑ Back to top | Tablatures and chords for acoustic guitar and electric guitar, ukulele, drums are parodies/interpretations of the original songs. You may use it for private study, scholarship, research or language learning purposes only