» » »

Rob Scallon - Picklet Tabs

Artists:  A B C D E F G H I J K L M N O P Q R S T U V W X Y Z # 

Picklet Tabs

(ver. 1) Click to play this song!
Rob Scallon
 Rating:
2.7/5 (30 votes)

 Picklet  lessons Tabs too difficult? Try these video lessons and learn fast
 
                                                                                                
E |----------------------------------------------------------------------------|
B |----------------------------------------------------------------------------|
G |-----------------------------2--2h-4--2--2h-6-------------------------------|
D |--------------------2--2h-6--------------------2--2h-7----------------------|
A |-----------0--0h-4--------------------------------------0--0h-5--0--0h-4----|
E |--0--0h-5-------------------------------------------------------------------|

                                                     
-----------0-----------------0----------------------|
--2--------2--------2--------2----------------------|
--2--------2--2-----2--------2--2-----2-----2--2----|
--2--------2--2-----2--------2--2-----2-----2--2----|
--4-----------4-----4-----------4-----4-----4--4----|
--0-----------0-----0-----------0-----0-----0--0----|

                                                                             
----------------------------------------------------------------------------|
----------------------------------------------------------------------------|
-----------------------------2--2h-4--2--2h-6-------------------------------|
--------------------2--2h-6--------------------2--2h-7----------------------|
-----------0--0h-4--------------------------------------0--0h-5--0--0h-4----|
--0--0h-5-------------------------------------------------------------------|

                                                     
-----------0-----------------0----------------------|
--2--------2--------2--------2----------------------|
--2--------2--2-----2--------2--2-----2-----2--2----|
--2--------2--2-----2--------2--2-----2-----2--2----|
--4-----------4-----4-----------4-----4h-5--5--5----|
--0-----------0-----0-----------0-----0-----0--0----|

                                                                             
----------------------------------------------------------------------------|
----------------------------------------------------------------------------|
-----------------------------2--2h-4--2--2h-6-------------------------------|
--------------------2--2h-4--------------------2--2h-7----------------------|
-----------0--0h-5--------------------------------------0--0h-7--0--0h-5----|
--0--0h-7-------------------------------------------------------------------|

                                                     
-----------0-----------------0----------------------|
--2--------2--------2--------2----------------------|
--2--------2--2-----2--------2--2-----2-----2--2----|
--2--------2--2-----2--------2--2-----2-----2--2----|
--5-----------5-----5s-4-----4--4-----4s-2--0--0----|
--0-----------0-----0-----------0-----0-----0--0----|

                                                                             
----------------------------------------------------------------------------|
----------------------------------------------------------------------------|
-----------------------------2--2h-4--2--2h-6-------------------------------|
--------------------2--2h-6--------------------2--2h-7----------------------|
-----------0--0h-4--------------------------------------0--0h-5--0--0h-4----|
--0--0h-5-------------------------------------------------------------------|

                                                     
-----------0-----------------0----------------------|
--2--------2--------2--------2----------------------|
--2--------2--2-----2--------2--2-----2-----2--2----|
--2--------2--2-----2--------2--2-----2-----2--2----|
--0--------0--0-----0--------0--4s----0-----0--0----|
--0-----------0-----0-----------0-----0-----0--0----|

                                                                             
----------------------------------------------------------------------------|
----------------------------------------------------------------------------|
----------------------------------------------------------------------------|
----------------------------------------------------------------------------|
-----------0--0h-4-----------0--0h-4-----------0--0h-4-----------0--0h-4----|
--0--0h-5-----------0--0h-5-----------0--0h-5-----------0--0h-5-------------|

                                                                             
----------------------------------------------------------------------------|
----------------------------------------------------------------------------|
----------------------------------------------------------------------------|
----------------------------------------------------------------------------|
-----------0--0h-5-----------0--0h-5-----------0--0h-5--0--0h-7--0--0h-5----|
--0--0h-7-----------0--0h-7-----------0--0h-7-------------------------------|

                                                                             
----------------------------------------------------------------------------|
----------------------------------------------------------------------------|
----------------------------------------------------------------------------|
----------------------------------------------------------------------------|
-----------0--0h-4-----------0--0h-4-----------0--0h-4-----------0--0h-4----|
--0--0h-5-----------0--0h-5-----------0--0h-5-----------0--0--5-------------|

                                                                             
----------------------------------------------------------------------------|
----------------------------------------------------------------------------|
----------------------------------------------------------------------------|
----------------------------------------------------------------------------|
-----------0--0h-2-----------0--0h-2-----------0--0h-5-----------0--0h-5----|
--0--0h-4-----------0--0h-4-----------0--0h-7-----------0--0h-7-------------|

                                                                             
----------------------------------------------------------------------------|
----------------------------------------------------------------------------|
--------------------------------------2--2h-6--2--2h-6--2--2h-6--2--2h-6----|
--------------------------------------2-------------------------------------|
-----------0--0h-4-----------0--0h-4--0-------------------------------------|
--0--0h-5-----------0--0h-5-----------0-------------------------------------|

                                                                             
----------------------------------------------------------------------------|
----------------------------------------------------------------------------|
--------------------------------------2--2h-7--2--2h-7--2--2h-7--2--2h-7----|
--------------------------------------2-------------------------------------|
-----------0--0h-5-----------0--0h-5--0-------------------------------------|
--0--0h-7-----------0--0h-7-----------0-------------------------------------|

                                                                             
----------------------------------------------------------------------------|
----------------------------------------------------------------------------|
--------------------------------------2--2h-9--2--2h-9--2--2h-9-------------|
--------------------------------------2--------------------------2--2h-6----|
-----------0--0h-7-----------0--0h-7--0-------------------------------------|
--0--0h-9-----------0--0h-9-----------0-------------------------------------|

                                                                             
----------------------------------------------------------------------------|
----------------------------------------------------------------------------|
--------------------2--2h-7-----------------------------2--2h-7-------------|
-----------------------------2--2h-6-----------------------------2--2h-6----|
-----------0--0h-5-----------------------------0--0h-5----------------------|
--0--0h-4-----------------------------0--0h-4-------------------------------|

                                                                             
----------------------------------------------------------------------------|
----------------------------------------------------------------------------|
-----------------------------2--2h-4--2--2h-6-------------------------------|
--------------------2--2h-6--------------------2--2h-7----------------------|
-----------0--0h-4--------------------------------------0--0h-5--0--0h-4----|
--0--0h-5-------------------------------------------------------------------|

                                                     
-----------0-----------------0----------------------|
--2--------2--------2--------2----------------------|
--2--------2--2-----2--------2--2-----2-----2--2----|
--2--------2--2-----2--------2--2-----2-----2--2----|
--4-----------4-----4-----------4-----4-----4--4----|
--0-----------0-----0-----------0-----0-----0--0----|

                                                                             
----------------------------------------------------------------------------|
----------------------------------------------------------------------------|
-----------------------------2--2h-4--2--2h-6-------------------------------|
--------------------2--2h-6--------------------2--2h-7----------------------|
-----------0--0h-4--------------------------------------0--0h-5--0--0h-4----|
--0--0h-5-------------------------------------------------------------------|

                                                     
-----------0-----------------0----------------------|
--2--------2--------2--------2----------------------|
--2--------2--2-----2--------2--2-----2-----2--2----|
--2--------2--2-----2--------2--2-----2-----2--2----|
--4-----------4-----4-----------4-----4h-5--5--5----|
--0-----------0-----0-----------0-----0-----0--0----|

                                                                             
----------------------------------------------------------------------------|
----------------------------------------------------------------------------|
-----------------------------2--2h-4--2--2h-6-------------------------------|
--------------------2--2h-4--------------------2--2h-7----------------------|
-----------0--0h-5--------------------------------------0--0h-7--0--0h-5----|
--0--0h-7-------------------------------------------------------------------|

                                                     
-----------0-----------------0----------------------|
--2--------2--------2--------2----------------------|
--2--------2--2-----2--------2--2-----2-----2--2----|
--2--------2--2-----2--------2--2-----2-----2--2----|
--5-----------5-----5s-4-----4--4-----4s-2--0--0----|
--0-----------0-----0-----------0-----0-----0--0----|

                                                                             
----------------------------------------------------------------------------|
----------------------------------------------------------------------------|
-----------------------------2--2h-4--2--2h-6-------------------------------|
--------------------2--2h-6--------------------2--2h-7----------------------|
-----------0--0h-4--------------------------------------0--0h-5--0--0h-4----|
--0--0h-5-------------------------------------------------------------------|

                                                     
-----------0-----------------0----------------------|
--2--------2--------2--------2----------------------|
--2--------2--2-----2--------2--2-----2-----2--2----|
--2--------2--2-----2--------2--2-----2-----2--2----|
--0--------0--0-----0--------0--4s----0-----0--0----|
--0-----------0-----0-----------0-----0-----0--0----|

                                                                             
----------------------------------------------------------------------------|
----------------------------------------------------------------------------|
----------------------------------------------------------------------------|
----------------------------------------------------------------------------|
-----------0--0h-4-----------0--0h-4-----------0--0h-4-----------0--0h-4----|
--0--0h-5-----------0--0h-5-----------0--0h-5-----------0--0h-5-------------|

                                                                             
----------------------------------------------------------------------------|
----------------------------------------------------------------------------|
----------------------------------------------------------------------------|
--------------------------------------------------------2--2----------------|
-----------0--0h-5-----------0--0h-5-----------0--0h-5--------7--0--0h-5----|
--0--0h-7-----------0--0h-7-----------0--0h-7-------------------------------|

                                                                             
----------------------------------------------------------------------------|
----------------------------------------------------------------------------|
----------------------------------------------------------------------------|
--------------------------------------------------------2--2----------------|
-----------0--0h-4-----------0--0h-4-----------0--0h-4-----------0--0h-4----|
--0--0h-5-----------0--0h-5-----------0--0h-5-----------------5-------------|

                                                                             
----------------------------------------------------------------------------|
----------------------------------------------------------------------------|
----------------------------------------------------------------------------|
----------------------------------------------------------------------------|
-----------0--0h-2-----------0--0h-2-----------0--0h-5-----------0--0h-5----|
--0--0h-4-----------0--0h-4-----------0--0h-7-----------0--0h-7-------------|

                                                                             
----------------------------------------------------------------------------|
----------------------------------------------------------------------------|
--------------------------------------2--2h-6--2--2h-6--2--2h-6--2--2h-6----|
--------------------------------------2-------------------------------------|
-----------0--0h-4-----------0--0h-4--0-------------------------------------|
--0--0h-5-----------0--0h-5-----------0-------------------------------------|

                                                                             
----------------------------------------------------------------------------|
----------------------------------------------------------------------------|
--------------------------------------2--2h-7--2--2h-7--2--2h-7--2--2h-7----|
--------------------------------------2-------------------------------------|
-----------0--0h-5-----------0--0h-5--0-------------------------------------|
--0--0h-7-----------0--0h-7-----------0-------------------------------------|

                                                                             
----------------------------------------------------------------------------|
----------------------------------------------------------------------------|
--------------------------------------2--2h-9--2--2h-9--2--2h-9-------------|
--------------------------------------2--------------------------2--2h-6----|
-----------0--0h-7-----------0--0h-7--0-------------------------------------|
--0--0h-9-----------0--0h-9-----------0-------------------------------------|

                                                                             
----------------------------------------------------------------------------|
----------------------------------------------------------------------------|
--------------------2--2h-7-----------------------------2--2h-7-------------|
-----------------------------2--2h-6-----------------------------2--2h-6----|
-----------0--0h-5-----------------------------0--0h-5----------------------|
--0--0h-4-----------------------------0--0h-4-------------------------------|

                                                                             
----------------------------------------------------------------------------|
----------------------------------------------------------------------------|
--------------------2--2h-7-----------------------------2--2h-7-------------|
-----------------------------2--2h-6-----------------------------2--2h-6----|
-----------0--0h-5-----------------------------0--0h-5----------------------|
--0--0h-4-----------------------------0--0h-4-------------------------------|

                                                                             
----------------------------------------------------------------------------|
----------------------------------------------------------------------------|
--------------------2--2h-7-----------------------------2--2h-7-------------|
-----------------------------2--2h-6-----------------------------2--2h-6----|
-----------0--0h-5-----------------------------0--0h-5----------------------|
--0--0h-4-----------------------------0--0h-4-------------------------------|

                                                                              
----------------------------------------------------------------------------||
----------------------------------------------------------------------------||
--------------------2--2h-7-----------------------------2--2h-7-------------||
-----------------------------2--2h-6--2-----------------2--------2--2h-6----||
-----------0--0h-5--------------------0--------0--0h-5--0--------0----------||
--0--0h-4-----------------------------0--0h-4-----------0--------0----------||

                                                                            
---------------------------------------------------------------------------|
---------------------------------------------------------------------------|
o------------------2--2h-6--2--2h-6--------------------2--2h-6--2--2h-6----|
o------------------2-----------------------------------2-------------------|
----------0--0h-4--0--------------------------0--0h-4--0-------------------|
-0--0h-5-----------0-----------------0--0h-5-----------0-------------------|

                                                                             
----------------------------------------------------------------------------|
--------------------------------------2-------------------------------------|
--------------------2--2h-6--2--2h-6--6s----------------2-------------------|
--------------------2-----------------2-----------------2-------------------|
-----------0--0h-4--0-----------------0-----------------0-------------------|
--0--0h-5-----------0-----------------0-----------------0-------------------|

                                                                             
----------------------------------------------------------------------------|
----------------------------------------------------------------------------|
--------------------2--2h-6--2--2h-6--------------------2--2h-6--2--2h-6----|
--------------------2-----------------------------------2-------------------|
-----------0--0h-4--0--------------------------0--0h-4--0-------------------|
--2--2h-5-----------2-----------------2--2h-5-----------2-------------------|

                                                                             
---------------------------------------------------------------------------||
---------------------------------------------------------------------------||
--------------------2--2h-6--2--2h-7--------------------2--2h-7--2--2h-7--o||
--------------------2-----------------------------------2-----------------o||
-----------0--0h-5--0--------------------------0--0h-5--0------------------||
--4--4h-7-----------4-----------------4--4h-7-----------4------------------||

                                                                             
----------------------------------------------------------------------------|
----------------------------------------------------------------------------|
-----------------------------2--2h-4--2--2h-6-------------------------------|
--------------------2--2h-6--------------------2--2h-7----------------------|
-----------0--0h-4--------------------------------------0--0h-5--0--0h-4----|
--0--0h-5-------------------------------------------------------------------|

                                                     
-----------0-----------------0----------------------|
--2--------2--------2--------2----------------------|
--2--------2--2-----2--------2--2-----2-----2--2----|
--2--------2--2-----2--------2--2-----2-----2--2----|
--4-----------4-----4-----------4-----4-----4--4----|
--0-----------0-----0-----------0-----0-----0--0----|

                                                                             
----------------------------------------------------------------------------|
----------------------------------------------------------------------------|
-----------------------------2--2h-4--2--2h-6-------------------------------|
--------------------2--2h-6--------------------2--2h-7----------------------|
-----------0--0h-4--------------------------------------0--0h-5--0--0h-4----|
--0--0h-5-------------------------------------------------------------------|

                                                     
-----------0-----------------0----------------------|
--2--------2--------2--------2----------------------|
--2--------2--2-----2--------2--2-----2-----2--2----|
--2--------2--2-----2--------2--2-----2-----2--2----|
--4-----------4-----4-----------4-----4h-5--5--5----|
--0-----------0-----0-----------0-----0-----0--0----|

                                                                             
----------------------------------------------------------------------------|
----------------------------------------------------------------------------|
-----------------------------2--2h-4--2--2h-6-------------------------------|
--------------------2--2h-4--------------------2--2h-7----------------------|
-----------0--0h-5--------------------------------------0--0h-7--0--0h-5----|
--0--0h-7-------------------------------------------------------------------|

                                                     
-----------0-----------------0----------------------|
--2--------2--------2--------2----------------------|
--2--------2--2-----2--------2--2-----2-----2--2----|
--2--------2--2-----2--------2--2-----2-----2--2----|
--5-----------5-----5s-4-----4--4-----4s-2--0--0----|
--0-----------0-----0-----------0-----0-----0--0----|

                                                                             
----------------------------------------------------------------------------|
----------------------------------------------------------------------------|
-----------------------------2--2h-4--2--2h-6-------------------------------|
--------------------2--2h-6--------------------2--2h-7----------------------|
-----------0--0h-4--------------------------------------0--0h-5--0--0h-4----|
--0--0h-5-------------------------------------------------------------------|

                                                                             
----------------------------------------------------------------------------|
----------------------------------------------------------------------------|
--2--------2--2-----2--------2--2-----2--------2--2-----2--------2--2-------|
--2--------2--2-----2--------2--2-----2--------2--2-----2--------2--2-------|
--4--------4--4-----4--------4--4-----4--------4--4-----5--------5--5-------|
--0-----------0-----5--------5--5-----0-----------0-----7--------7--7-------|

                                                                             
----------------------------------------------------------------------------|
----------------------------------------------------------------------------|
--2--------2--2-----2--------2--2-----2--------2--2-----2--------2--2-------|
--2--------2--2-----2--------2--2-----2--------2--2-----2--------2--2-------|
--4--------4--4-----4--------4--4-----4--------4--4-----5--------5--5-------|
--0-----------0-----5--------5--5-----2--------2--2-----2--------2--2-------|

                                                                             
--------------------0--------0--0-----------------------0--------0--0-------|
--------------------2--------2--2-----------------------2--------2--2-------|
--2--------2--2-----2--------2--2-----2--------2--2-----2--------2--2-------|
--2--------2--2-----2--------2--2-----2--------2--2-----2--------2--2-------|
--4--------4--4-----4--------4--4-----4--------4--4-----5--------5--5-------|
--0-----------0-----5--------5--5-----0-----------0-----7--------7--7-------|

                                                                             
--------------------0--------0--0-----------------------0--------0--0-------|
--------------------2--------2--2-----------------------2--------2--2-------|
--2--------2--2-----2--------2--2-----2--------2--2-----2--------2--2-------|
--2--------2--2-----2--------2--2-----2--------2--2-----2--------2--2-------|
--4--------4--4-----4--------4--4-----4--------4--4-----5--------5--5-------|
--0-----------0-----5--------5--5-----2--------2--2-----2--------2--2-------|

                                                                             



SOLO:


----------------------------------------------------------------------------|
----------------------------------------------------------------------------|
--11-------9----------------------------------------------------------------|
--------------12-11-12L---------------------12----12h11-12h11-12h11-12h11---|
----------------------------------------------------------------------------|
----------------------------------------------------------------------------|


----------------------------------------|
----------------------------------------|
--------14s11----------------9----------|
--12s9----------------------------------|
----------------------------------------|
----------------------------------------|


----------------------------------------------------------------------------|
----------------------------------------------------------------------------|
--11-------9----------------------------------------------------------------|
--------------12-11-12L---------------------12----12h11-12h11-12h11-12h11---|
----------------------------------------------------------------------------|
----------------------------------------------------------------------------|


----------------------------------------|
----------------------------------------|
----------------------------------------|
--12s9--7-----------7-----7--------7----|
-----------10-9--10----10-9--------9s---|
----------------------------------------|




------



                                                                                
-----------------------------0--------------------------------------------------
--2--------------------------2--------------------------2-----------------------
--2--------------------------2--------2-----------------2-----------------------
--2--------------------------2--------2-----------------2-----------------------
--0--------------------------0--------0-----------------0-----------------------
--0-----------------------------------0-----------------0-----------------0-----

                                                                      
--------------------------------------------------------------------||
------------------------------2-----------------2--------2----------||
------------------------------2-----------------2--------2----------||
------------------------------2-----------------2--------2----------||
------------0-----0h----4-----0-----------------0--------0----------||
0h----5-----------------------0-----------------0--------0----------||

 w                                                                              
----------------------------0---------------------------------------------------
-2--------------------------2--------------------------2------------------------
o2--------------------------2--------2-----------------2------------------------
o2--------------------------2--------2-----------------2------------------------
-0--------------------------0--------0-----------------0------------------------
-0-----------------------------------0-----------------0-----------------0-----0

                                                                    
------------------------------------------------------------------||
-----------------------------2-----------------2--------2---------||
-----------------------------2-----------------2--------2--------o||
-----------------------------2-----------------2--------2--------o||
-----------0-----0h----4-----0-----------------0--------0---------||
h----5-----------------------0-----------------0--------0---------||

  w
-----------------------------0--------------------------------------------------
--2--------------------------2--------------------------2-----------------------
--2--------------------------2--------2-----------------2-----------------------
--2--------------------------2--------2-----------------2-----------------------
--0--------------------------0--------0-----------------0-----------------------
--0-----------------------------------0-----------------0-----------------0-----


------------------------------0-------------------------------------|----||
------------------------------2-------------------------------------|----||
------------------------------2-------------------------------------|----||
------------------------------2-------------------------------------|----||
------------0-----0h----4-----0-------------------------------------|----||
0h----5-----------------------0-------------------------------------|----||            
Submit corrections


        Picklet  lessons Hard to play? Try these video lessons and learn fast Picklet  lessons
        
↑ Back to top | Tablatures and chords for acoustic guitar and electric guitar, ukulele, drums are parodies/interpretations of the original songs. You may use it for private study, scholarship, research or language learning purposes only