» » »

Rob Scallon - Mini Concert Tabs

Artists:  A B C D E F G H I J K L M N O P Q R S T U V W X Y Z # 

Mini Concert Tabs

(ver. 1) Click to play this song!
Rob Scallon
 Rating:
4/5 (4 votes)

 Mini Concert  lessons Tabs too difficult? Try these video lessons and learn fast
 
                G |-----------------------------------------------------2--------3-------------|
D |--------------2--3-----------2--3--2-----2----------------------------------|
A |--0-----------------------------------4-----4--1----------------------------|
E |----------------------------------------------------------------------------|


-----------------------------------------------------2s-6-------------------|
--------------2--3-----------2--3--2-----2--------------------7-------------|
--0-----------------------------------4-----4--1----------------------------|
----------------------------------------------------------------------------|


-----------------------------------------------------3--------------2-------|
--------------2--3-----------2--3--2-----2--------------3--------------2----|
--0-----------------------------------4-----4--1--------------1-------------|
----------------------------------------------------------------------------|


----------------------------------------|----------------------------|-------|
--------2--3-----2--3--2-----2----------|----------------------------|-------|
--0-----------------------4-----4--1----|--4--1--0-------------------|-------|
----------------------------------------|--------------1-------------|--0----|


----------------|-------||
----------------|-------||
--0-------------|-------||
----------------|-------||


-------------------------------------------------------6-----------------7------|
o------------------------------------5-----7-----8------------------------------|
o0-----------------5-----7-----8------------------------------------------------|
--------------------------------------------------------------------------------|


-----------------------------10----10----10----10----10----10------|
-------------------------------------------------------------------|
-----------0-------------------------------------------------------|
-------------------------------------------------------------------|


--9-------------------------------------------------|
--------------2--3--2-----2-----2--3----------------|
--------0--------------4-----4--------------1-------|
--------------------------------------1-------------|


--------------------------------------------------------6-----------------7-----|
--------------------------------------5-----7-----8-----------------------------|
--0-----------------5-----7-----8-----------------------------------------------|
--------------------------------------------------------------------------------|


------------------------------10----------10----------10------------|
--------------------------------------------------------------------|
------------0-------------------------------------------------------|
--------------------------------------------------------------------|


--9-----------------------15s---------------15----------------14----------------|
--------------------------------------------------------------------------------|
--------------0-----------------------------------------------------------------|
--------------------------------------------------------------------------------|


14s----------------|||---------------------------|
------------------o|||o--------------------------|
------------------o|||o0--------1--------1-------|
-------------------|||-------1--------1-----0----|


----------------------------------------------------|
--------------2--3--2-----2-----2h-3----------------|
--0--------------------4-----4--------------1-------|
--------------------------------------1-------------|


----------------------------------------------------------------------------|
----------------------------------------------------------------------------|
--0--------------------------1--------------------------1-------------------|
--------------------1--------------------------1--------------1-----0-------|


--------------------------------------3s-----------||
--------------2--3--2-----2-----2h-3--3s----------o||
--0--------------------4-----4--------------------o||
---------------------------------------------------||


--------------------------------------------------------6-----------------7-----|
--------------------------------------5-----7-----8-----------------------------|
--0-----------------5-----7-----8-----------------------------------------------|
--------------------------------------------------------------------------------|


------------------------------10----10----10----10----10----10------|
--------------------------------------------------------------------|
------------0-------------------------------------------------------|
--------------------------------------------------------------------|


--9-------------------------------------------------|
--------------2--3--2-----2-----2--3----------------|
--------0--------------4-----4--------------1-------|
--------------------------------------1-------------|


--------------------------------------------------------6-----------------7-----|
--------------------------------------5-----7-----8-----------------------------|
--0-----------------5-----7-----8-----------------------------------------------|
--------------------------------------------------------------------------------|


------------------------------10----------10----------10------------|
--------------------------------------------------------------------|
------------0-------------------------------------------------------|
--------------------------------------------------------------------|


--9-----------------2s----15----------------15----------------0--6--7--9--15h---|
--------------------------------------------------------------------------------|
--------------0-----------------------------------------------------------------|
--------------------------------------------------------------------------------|


------14s-----------|----------------------------|
--------------------|----------------------------|
--------------------|--0--------1--------1-------|
--------------------|--------1--------1-----0----|


----------------------------------------------------|
--------------2--3--2-----2-----2h-3----------------|
--0--------------------4-----4--------------1-------|
--------------------------------------1-------------|


----------------------------------------------------------------------------|
----------------------------------------------------------------------------|
--0--------------------------1--------------------------1-------------------|
--------------------1--------------------------1--------------1-----0-------|


--------------------------------------3s------------|
--------------2--3--2-----2-----2h-3--3s------------|
--0--------------------4-----4--------------0-------|
----------------------------------------------------|


--------------------------------------------------------------------------6-----|
--------------------------------------------------------5-----7-----8-----------|
--0-----------------0-----------------5-----7-----8-----------------------------|
--------------------------------------------------------------------------------|


7-----6-----------6-------------------------------------------------|
------------8-----------8-----7-----------------8-------------------|
--------------------------------------------------------------------|
--------------------------------------------------------------------|


--------------------------------------------------------------------------6-----|
--------------------------------------------------------5-----7-----8-----------|
--0-----------------0-----------------5-----7-----8-----------------------------|
--------------------------------------------------------------------------------|


7-----6-----10s---------------------------------14s-----------------|
--------------------------------------------------------------------|
------------------------------0-------------------------------------|
--------------------------------------------------------------------|


--------------------------------------------------------------------------6-----|
--------------------------------------------------------5-----7-----8-----------|
--0-----------------0-----------------5-----7-----8-----------------------------|
--------------------------------------------------------------------------------|


7-----6-----------6-------------------------------------------------|
------------8-----------8-----7-----------------8-------------------|
--------------------------------------------------------------------|
--------------------------------------------------------------------|


--------------------6-----7-----6-----------6-----------------------------------|
--------------------------------------8-----------8-----7-----------------8-----|
--------------------------------------------------------------------------------|
--------------------------------------------------------------------------------|


--------------------------------------------------------------------|
---------------------8----------------------------------------------|
------------------------------------------------0-------------------|
--------------------------------------------------------------------|


----------------------------|
--7-------------------------|
-----------0--0-------------|
----------------------------|

                    ^
--2-----------------2-------------------------------|
-----------2--------2-----------------2-------------|
--------------------0-----------0-----------0-------|
----------------------------------------------------|


----------------------------|--2-------------|--2-------|-------|-------|
--7-------------------------|-----2-----2----|----------|-------|-------|
-----------0--0-------------|--------0-------|-----0L---|--0----|--0----|
----------------------------|----------------|----------|-------|-------|


-------|-------|-------|-------|
-------|-------|-------|-------|
--0----|--0----|--0L---|--0----|
-------|-------|-------|-------|


--7--9--10-9--7--6--------6-------------------------|
-----------------------8-----8--7-------------------|
----------------------------------------------------|
----------------------------------------------------|


--7--9--10-9--7--6--------6-----6--7L----------7----|
-----------------------8-----8----------------------|
----------------------------------------------------|
----------------------------------------------------|


--7--9--10-9--7--6--------6-------------------------|----------------|
-----------------------8-----8--7-------------------|--8s------------|
----------------------------------------------------|-----1----------|
----------------------------------------------------|----------------|


--7--9--10-9--7--6--------6-------------------------|
-----------------------8-----8--7-------------------|
----------------------------------------------------|
----------------------------------------------------|


--7--9--10-9--7--6--------6-----6--7L----------7----|
-----------------------8-----8----------------------|
----------------------------------------------------|
----------------------------------------------------|


--7--9--10-9--7--6--------6-------------------------|----------------|
-----------------------8-----8--7-------------------|--8s------------|
----------------------------------------------------|-----1s---------|
----------------------------------------------------|----------------|


--7--9--10-9--7--6--------6-----------------14------|
-----------------------8-----8--7-------------------|
----------------------------------------------------|
----------------------------------------------------|


--7--9--10-9--7--6--------6-----6--7--------15------|
-----------------------8-----8----------------------|
----------------------------------------------------|
----------------------------------------------------|


--7--9--10-9--7--6--------6-------------------------|-------------------|
-----------------------8-----8--7-------------------|--8s---------------|
----------------------------------------------------|-----1-----4-------|
----------------------------------------------------|-------------------|


----------------------------------------------------|
----------------------------------------------------|
--5-----------x-----7-----8-----7-----5-----4-------|
----------------------------------------------------|


----------------------------|
----------------------------|
--4-----x--1--------4-------|
----------------------------|


----------------------------------------------------|
----------------------------------------------------|
--5-----------x-----7-----8-----7-----5-----4-------|
----------------------------------------------------|


----------------------------|
----------------------------|
--4-----x--1--------4-------|
----------------------------|


----------------------------------------------------|
--------------------------------------------7-------|
--5-----------x-----7-----8-----7-----5-------------|
----------------------------------------------------|


----------------------------|----------------------------|
----------------------------|----------------------------|
--4-----x--1--------4-------|--5-----x--7--8--0----------|
----------------------------|----------------------------|


----------------------------|
----------------------------|
--4-----x--1--------4-------|
----------------------------|


----------------------------------------------------|
----------------------------------------------------|
--5-----------x-----7-----8-----7-----5-----4-------|
----------------------------------------------------|


----------------------------|
----------------------------|
--4-----x--1--------4-------|
----------------------------|


----------------------------------------------------|
--------------------------------------------7-------|
--5-----------x-----7-----8-----7-----5-------------|
----------------------------------------------------|


----------------------------|----------------------------|
----------------------------|----------------------------|
--4-----x--1--------4-------|--5-----x--7--8--0----------|
----------------------------|----------------------------|


----------------------------|
----------------------------|
--4-----x--1-----------4----|
----------------------------|


----------------------------------------------------|
--------------------------------------------7-------|
--5-----------x-----7-----8-----7-----5-------------|
----------------------------------------------------|


----------------------------|----------------------------|----||
----------------------------|----------------------------|----||
--4--------1--------4-------|--5-------------------------|----||
----------------------------|----------------------------|----||            
Submit corrections


        Mini Concert  lessons Hard to play? Try these video lessons and learn fast Mini Concert  lessons
        
↑ Back to top | Tablatures and chords for acoustic guitar and electric guitar, ukulele, drums are parodies/interpretations of the original songs. You may use it for private study, scholarship, research or language learning purposes only