» » »

Rob Scallon - Envy Tabs

Artists:  A B C D E F G H I J K L M N O P Q R S T U V W X Y Z # 

Envy Tabs

(ver. 1) Click to play this song!
Rob Scallon
 Rating:
3.1/5 (30 votes)

 Envy  lessons Tabs too difficult? Try these video lessons and learn fast
 
                                                                        
B |-------|----------------|----------|----------------|
G |-------|----------------|----------|----------------|
D |-------|----------------|----------|----------------|
A |-------|----------------|----------|----------------|
E |-------|----------------|----------|----------------|
B |-------|----------------|----------|----------------|
F#|-------|----------------|----------|--------1--3----|
C#|--0L---|--0--------1L---|--1--3----|--4-------------|

        =  =  =  =  =  =       =  =                       
----------------------------|----------------------------|
----------------------------|----------------------------|
----------------------------|----------------------------|
----------------------------|----------------------------|
--6-------------------------|--------6-----------6-------|
--6-----5--6--5-----5-------|--5--6--6-----------6-------|
--4--------------7-----7----|--------4-----0M-4M-4-------|
----------------------------|----------------------------|

        =  =  =  =  =  =                                  
----------------------------|----------------------------|
----------------------------|----------------------------|
----------------------------|----------------------------|
----------------------------|----------------------------|
--5-------------------------|--------5-----------5-------|
--5-----5--6--5-----5-------|--------5-----------5-------|
--3--------------7-----7----|--0M-3M-3-----0M-3M-3-------|
----------------------------|----------------------------|

        =  =  =  =  =  =       =  =                       
----------------------------|----------------------------|
----------------------------|----------------------------|
----------------------------|----------------------------|
----------------------------|----------------------------|
--6-------------------------|--------6-----------6-------|
--6-----5--6--5-----5-------|--5--6--6-----------6-------|
--4--------------7-----7----|--------4-----0M-4M-4-------|
----------------------------|----------------------------|

        =  =  =  =  =  =                                  
----------------------------|----------------------------|
----------------------------|----------------------------|
----------------------------|----------------------------|
----------------------------|----------------------------|
--5-------------------------|--------5-----------5-------|
--5-----5--6--5-----5-------|--------5-----------5-------|
--3--------------7-----7----|--0M-3M-3-----0M-3M-3-------|
----------------------------|----------------------------|

        =  =  =  =  =  =       =  =                       
----------------------------|----------------------------|
----------------------------|----------------------------|
----------------------------|----------------------------|
----------------------------|----------------------------|
--6-----5--6--5--0--5--0----|--5--6--6~----------6-------|
--6-------------------------|--------------------6-------|
--4-------------------------|--------------0M-4M-4-------|
----------------------------|----------------------------|

        =  =  =  =  =  =                                  
----------------------------|----------------------------|
----------------------------|----------------------------|
----------------------------|----------------------------|
----------------------------|----------------------------|
--5-----5--6--5--0--5--0----|--------5-----------5-------|
--5-------------------------|--------5-----------5-------|
--3-------------------------|--0M-3M-3-----0M-3M-3-------|
----------------------------|----------------------------|

        =  =  =  =  =  =       =  =                       
----------------------------|----------------------------|
----------------------------|----------------------------|
----------------------------|----------------------------|
----------------------------|----------------------------|
--6-----5--6--5--0--5--0----|--5--6--6~----------6-------|
--6-------------------------|--------------------6-------|
--4-------------------------|--------------0M-4M-4-------|
----------------------------|----------------------------|

        =  =  =  =  =  =                                  
----------------------------|----------------------------|
----------------------------|----------------------------|
----------------------------|----------------------------|
----------------------------|--------------------11------|
--5-----5--6--5--0--5--0----|--------5-----------9-------|
--5-------------------------|--------3--------9M-9-------|
--3-------------------------|--0M-3M-3-----0M------------|
----------------------------|----------------------------|

        =  =  =  =  =  =                                  
----------------------------|----------------------------|
----------------------------|----------------------------|
----------------------------|----------------------------|
--12------------------------|--------11----------11------|
--10----10-12-13-12-10-9----|--------9-----------9-------|
--10------------------------|--0M-9M-9-----0M-9M-9-------|
----------------------------|----------------------------|
----------------------------|----------------------------|

        =  =  =  =  =  =                                  
----------------------------|----------------------------|
----------------------------|----------------------------|
----------------------------|----------------------------|
--12------------------------|-----11-------15-------14---|
--10----10-12-13-12-10-9----|-----9--------13-------12---|
--10------------------------|--0--9-----0--13----0--12---|
----------------------------|----------------------------|
----------------------------|----------------------------|

        =  =  =  =  =  =                                  
----------------------------|----------------------------|
----------------------------|----------------------------|
----------------------------|----------------------------|
--12------------------------|--------11----------11------|
--10----10-12-13-12-10-9----|--------9-----------9-------|
--10------------------------|--0M-9M-9-----0M-9M-9-------|
----------------------------|----------------------------|
----------------------------|----------------------------|

        =  =  =  =  =  =
----------------------------|----------------------------||
----------------------------|----------------------------||
----------------------------|----------------------------||
--12------------------------|----------------------------||
--10------------------------|----------------------------||
--10------------------------|----------------------------||
--------8--10-11-10-8--7----|--0M-8-----0M-4-----0M-3----||
----------------------------|----------------------------||


---------------------------|----------------------------|
---------------------------|----------------------------|
---------------------------|----------------------------|
o--------------------------|----------------------------|
o--------------------------|----------------------------|
-------3--------3----------|--5--------6--------6-------|
---------------------------|----------------------------|
-1--------1--------1-------|-----3--------4--------4----|


----------------------------|---------------------------||
----------------------------|---------------------------||
----------------------------|---------------------------||
----------------------------|--------------------------o||
----------------------------|--------------------------o||
--------2--------2----------|--2--------2--------2------||
----------------------------|---------------------------||
--0--------0--------0-------|-----0--------0--------0---||


----------------------------|----------------------------|
----------------------------|----------------------------|
----------------------------|----------------------------|
----------------------------|----------------------------|
----------------------------|----------------------------|
----------------------------|----------------------------|
----------------------------|----------------------------|
--0-----12-0-----12-0-------|--12-0-----12-0-----12-0----|


----------------------------|----------------------------|
----------------------------|----------------------------|
--------------6~------------|-----2----------------------|
--4-------------------------|--------------4~------------|
--4-------------------------|----------------------------|
--2-----2M-2M-------2M-2M---|--2M----2M-2M-------2M-2M---|
----------------------------|----------------------------|
----------------------------|----------------------------|


----------------------------|----------------------------|
----------------------------|----------------------------|
----------------------------|----------------------------|
--------5--------7----------|--8--------5--------5-------|
----------------------------|----------------------------|
--2s-3-----3s-5-----5s-6----|-----6s-5-----3--------3----|
----------------------------|----------------------------|
----------------------------|----------------------------|


----------------------------|----------------------------|
----------------------------|----------------------------|
--------------6~------------|-----2----------------------|
--4-------------------------|--------------4~------------|
--4-------------------------|----------------------------|
--2-----2M-2M-------2M-2M---|--2M----2M-2M-------2M-2M---|
----------------------------|----------------------------|
----------------------------|----------------------------|


----------------------------|--------------3-------------||
----------------------------|--------------4-------------||
----------------------------|--------------5-------------||
--------5--------7----------|--8--------5--5-----5-------||
----------------------------|--------------3-------------||
--2s-3-----3s-5-----5s-6----|-----6s-5-----3--------3----||
----------------------------|----------------------------||
----------------------------|----------------------------||
            
Submit corrections


        Envy  lessons Hard to play? Try these video lessons and learn fast Envy  lessons
        
↑ Back to top | Tablatures and chords for acoustic guitar and electric guitar, ukulele, drums are parodies/interpretations of the original songs. You may use it for private study, scholarship, research or language learning purposes only