» » »

Rob Scallon - Anchor Tabs

Artists:  A B C D E F G H I J K L M N O P Q R S T U V W X Y Z # 

Anchor Tabs

(ver. 1) Click to play this song!
Rob Scallon
 Rating:
4/5 (4 votes)

 Anchor lessons Tabs too difficult? Try these video lessons and learn fast
 
                Tempo = 160
8 String Electric Guitar

Legend
L - tied note
x - dead note
h - hammer on/pull off
b - bend
s - slide
~ - vibrato
g - ghost note
> - accentuated note
t - trill
M - palm mute
. - staccato
P - popping (bass)
S - slapping (bass)
+ - tapping
W - wide vibrato
----------0-------------|----------------|
----------------------------||-0>-------------0----------|----------------|
--7s-9-----7s-9-----7s-9----||-0>----------------0-------|----------------|
----------------------------||o0>------------------------|--7>-0--7>-0----|
--5s-7-----5s-7-----5s-7----||o0>-------0----------------|--7>-0--7>-0----|
----------------------------||-0>-------0----------------|--7>-0--7>-0----|
--------0--------0----------||-0>-------0-----------0----|--7>-0--7>-0----|
----------------------------||-0>------------------------|--7>-0--7>-0----|

  S
--------------0-------------|----------------------------|
-----------------0----------|----------------------------|
--------------------0-------|----------------------------|
----------------------------|--------0-------------------|
-----------0----------------|-----7--------7h-8h-10------|
-----------0----------------|--7-------------------------|
-----------0-----------0----|-----------0----------------|
--0>------------------------|----------------------------|


--0-----------0-------------|----------------|--------------0-------------|
--0--------------0----------|----------------|-----------------0----------|
--0-----------------0-------|----------------|--------------------0-------|
--0-------------------------|--7>-0--7>-0----|----------------------------|
--0--------0----------------|--7>-0--7>-0----|----------------------------|
-----------0----------------|--7>-0--7>-0----|--2--------2-----------2----|
-----------0-----------0----|--7>-0--7>-0----|--x--------x-----------x----|
----------------------------|--7>-0--7>-0----|--2--------2-----------2----|


-----------------------0---||----------------------------|
-----------0--------0------||----------------------------|
--------0--------0---------||----------------------------|
-----0--------------------o||--0-----------9h-0----------|
--------------------------o||--0--------0-----------10h--|
--2L-2L-2L-2s-4------------||--0--------0--------0-------|
--x-----------x------------||--0--------0--------0-------|
--2L-2L-2L-2s-4------------||--0--------0--------0-------|


----------------------------|----------------------------|
----------------------------|----------------------------|
----------------------------|----------------------------|
----------------------------|--7-----------9h-7----------|
--0-----8h-0-----7h-0-------|--7--------7-----------10h--|
-----0--------0--------0----|--7--------7--------7-------|
-----0--------0--------0----|--7--------7--------7-------|
-----0--------0--------0----|--7--------7--------7-------|


----------------------------|----------------------------|
----------------------------|----------------------------|
----------------------------|----------------------------|
--------11h7-----12~--------|--0-----------9h-0----------|
--7--7--------7-------------|--0--------0-----------10h--|
-----7--------7-------------|--0--------0--------0-------|
-----7--------7-------------|--0--------0--------0-------|
-----7--------7-------------|--0--------0--------0-------|


----------------------------|--------------7-------------|--7s-12---|
----------------------------|-----------------7----------|--7s-12---|
----------------------------|--------------------9--9----|--9s-14---|
----------------------------|--7--------------------7----|--7s-12---|
--0-----8h-0-----7h-0-------|--7--------7-----------7----|--7s-12---|
-----0--------0--------0----|--7--------7-----------7----|--7s-12---|
-----0--------0--------0----|--7--------7-----------7----|--7s-12---|
-----0--------0--------0----|--7--------7-----------7----|--7s-12---|


--0-------------------------|----------------------------|
--0-------------------------|----------------------------|
--0-------------------------|----------------------------|
--0-----------9h-0----------|----------------------------|
--0--------0-----------10h--|--0-----8h-0-----7h-0-------|
--0--------0--------0-------|-----0--------0--------0----|
--0--------0--------0-------|-----0--------0--------0----|
--0--------0--------0-------|-----0--------0--------0----|


----------------------------|----------------------------|
----------------------------|----------------------------|
----------------------------|----------------------------|
--7-----------9h-7----------|--------11h7-----12~--------|
--7--------7-----------10h--|--7--7--------7-------------|
--7--------7--------7-------|-----7--------7-------------|
--7--------7--------7-------|-----7--------7-------------|
--7--------7--------7-------|-----7--------7-------------|


--------------8h-0-----10h--|--0-----12h0-----12h---0----|
----------------------------|----------------------------|
--------------9h-0-----10h--|--0-----12h0-----12h---0----|
--0-------------------------|----------------------------|
--0--------0----------------|----------------------------|
--0--------0--------0-------|-----0--------0-------------|
--0--------0--------0-------|-----0--------0-------------|
--0--------0--------0-------|-----0--------0-------------|


--------------7-------------|--7s----0-------||-7-----24h7----------------|
-----------------7----------|--7s----0-------||-7-----------24h7----------|
--------------------9--9----|--9s----4s-5----||-7-----------------24h7----|
--7--------------------7----|--7s----0-------||o7-------------------------|
--7--------7-----------7----|--7s----0-------||o7-------------------------|
--7--------7-----------7----|--7s----0-------||-7-------------------------|
--7--------7-----------7----|--7s----0-------||-7-------------------------|
--7--------7-----------7----|--7s----0-------||-7-------------------------|


--7-----24h7----------------|--7-----24h7----------------|
--7-----------24h7----------|--7-----------24h7----------|
--7-----------------21------|--7-----------------21h7----|
--7-------------------------|--7-------------------------|
--7-------------------------|--7-------------------------|
--7-------------------------|--7-------------------------|
--7-------------------------|--7-------------------------|
--7-------------------------|--7-------------------------|


----------------------------|--12----24h0----------------|
----------------------------|--12----------24h0----------|
-22h7--21h7--19h7--17h7----|--12----------------24h0----|
----------------------------|--12------------------------|
----------------------------|--12------------------------|
----------------------------|--12------------------------|
----------------------------|--12------------------------|
----------------------------|--12------------------------|


--12----24h0----------------|--12----24h0----------------|
--12----------24h0----------|--12----------24h0----------|
--12----------------21------|--12----------------21h0----|
--12------------------------|--12------------------------|
--12------------------------|--12------------------------|
--12------------------------|--12------------------------|
--12------------------------|--12------------------------|
--12------------------------|--12------------------------|


---------------------------||--12----24h0----------------|-------|-------||
---------------------------||--12----------24h0----------|-------|-------||
--22h0--21h0--22h0--24h0---||--12----------------21L-----|--21L--|--21~--||
--------------------------o||--12------------------------|-------|-------||
--------------------------o||--12------------------------|-------|-------||
---------------------------||--12------------------------|-------|-------||
---------------------------||--12------------------------|-------|-------||
---------------------------||--12------------------------|-------|-------||
            
Submit corrections


        Anchor lessons Hard to play? Try these video lessons and learn fast Anchor lessons
        
↑ Back to top | Tablatures and chords for acoustic guitar and electric guitar, ukulele, drums are parodies/interpretations of the original songs. You may use it for private study, scholarship, research or language learning purposes only