Home » R » Robin Thicke »

Robin Thicke - Lost Without You Tabs

Artists:  A B C D E F G H I J K L M N O P Q R S T U V W X Y Z # 

Lost Without You Tabs

(ver. 3) Click to play this song!
Robin Thicke
e|---------------------------------------------------------|
B|--666-6--666-6--666-6--666-6--555-5--555-5--555-5--555-5-|
G|--555-5--555-5--444-4--444-4--444-4--444-4--555-5--555-5-|
D|--333-3--333-3--333-3--333-3--555-5--555-5--555-5--555-5-|
A|--555-5--555-5--555-5--555-5--333-3--333-3--333-3--333-3-|
E|---------------------------------------------------------|

e|---------------------------------------------------------|
B|---------------------------------------------------------|
G|--456----------------------------------------------------|
D|--345----------------------------------------------------|
A|--567----------------------------------------------------|
E|---------------------------------------------------------|




Pretty much the same thing throughout the whole song, enjoy =)
            
Submit corrections

↑ Back to top | Tablatures and chords for acoustic guitar and electric guitar, ukulele, drums are parodies/interpretations of the original songs. You may use it for private study, scholarship, research or language learning purposes only