» » »

Roben Og Knud - Jesper Klein Tabs

Artists:  A B C D E F G H I J K L M N O P Q R S T U V W X Y Z # 

Jesper Klein Tabs

(ver. 2) Click to play this song!
Roben Og Knud
 Rating:
4/5 (4 votes)

 Jesper Klein lessons Tabs too difficult? Try these video lessons and learn fast
 
                Tuning: Standard

Jeg vil gerne møde Jesper Klein
e ----------------------------------  (Repeat 2 times)
b ----------------------------------
g --5-5-5-5-5-5-5-5-5-5-------------
D --5-5-5-5-5-5-5-5-5-5-------------
A --3-3-3-3-3-3-3-3-3-3-------------
E ----------------------------------

Han er sjov
e ----------------------------------  (Repeat 2 times)
b ----------------------------------
g ---4-4-4-4-4-4-----5-5------------
D ---4-4-4-4-4-4-----5-5------------
A ---2-2-2-2-2-2-----3-3------------
E ----------------------------------


Next part

Gud fri mig vel hvor er Jesper dog sjov
e ----------------------------------  (Repeat 2 times)
b ----------------------------------
g --5-5-5-5-5-5-5-5-5-5-------------
D --5-5-5-5-5-5-5-5-5-5-------------
A --3-3-3-3-3-3-3-3-3-3-------------
E ----------------------------------

Hahahaha, han er sjov
e ----------------------------------  (Repeat 2 times)
b ----------------------------------
g ---4-4-4-4-4-4-----5-5------------
D ---4-4-4-4-4-4-----5-5------------
A ---2-2-2-2-2-2-----3-3------------
E ----------------------------------
            
Submit corrections


        Jesper Klein lessons Hard to play? Try these video lessons and learn fast Jesper Klein lessons
        
↑ Back to top | Tablatures and chords for acoustic guitar and electric guitar, ukulele, drums are parodies/interpretations of the original songs. You may use it for private study, scholarship, research or language learning purposes only