» » »

Roben Og Knud - Gazellens Sang Tabs

Artists:  A B C D E F G H I J K L M N O P Q R S T U V W X Y Z # 

Gazellens Sang Tabs

(ver. 1) Click to play this song!
Roben Og Knud
 Rating:
4/5 (4 votes)

 Gazellens Sang lessons Tabs too difficult? Try these video lessons and learn fast
 
                Tuning: Standard

Krokodillen ta'r fat
e ----------------------------------  
b ----------------------------------
g ---5-5-5-5-5-5-5-5----------------
D ---5-5-5-5-5-5-5-5----------------
A ---3-3-3-3-3-3-3-3----------------
E ----------------------------------

I den lille søde Gazelle
e ----------------------------------
b ----------------------------------
g ----------------------------------
D ---3-3-3-3-3-3-3-3----------------
A ---3-3-3-3-3-3-3-3----------------
E ---1-1-1-1-1-1-1-1----------------


Just Continue every Verse like this until the song is finish.
            
Submit corrections


        Gazellens Sang lessons Hard to play? Try these video lessons and learn fast Gazellens Sang lessons
        
↑ Back to top | Tablatures and chords for acoustic guitar and electric guitar, ukulele, drums are parodies/interpretations of the original songs. You may use it for private study, scholarship, research or language learning purposes only