» » »

Roben Og Knud - Darwins Sang Tabs

Artists:  A B C D E F G H I J K L M N O P Q R S T U V W X Y Z # 

Darwins Sang Tabs

(ver. 1) Click to play this song!
Roben Og Knud
 Rating:
4/5 (4 votes)

 Darwins Sang lessons Tabs too difficult? Try these video lessons and learn fast
 
                Tuning: Standard

Hvad er det sjoveste dyr i verden....
e ----------------------------------  (play one time)
b ---------------------------------- 
g ---7-7-7-7-7---4-4---7-----7------
D ---7-7-7-7-7---4-4---7--7--7------
A ---5-5-5-5-5---2-2---5--7--5------
E ------------------------5---------

Ha ha ha ha ha haren...
e ----------------------------------  (Repeat 2 times)
b ----------------------------------
g --------------4-------------------
D ---2-2-2-2----4-------------------
A ---2-2-2-2----2-------------------
E ---0-0-0-0------------------------

Ja haren den er pæn sjov
e ----------------------------------  (play one time)
b ----------------------------------
g --------------7-------------------
D ---2-2-2-2----7-------------------
A ---2-2-2-2----5-------------------
E ---0-0-0-0------------------------


Continue until this part stops and then :


For så er det jo faktisk en tændstik
e ----------------------------------  (repeat 2 times)
b ----------------------------------
g --------------7-7-----------------
D ---5-5-5-5----7-7-----------------
A ---5-5-5-5----5-5-----------------
E ---3-3-3-3------------------------

Tændstikker de er pænt farlige
e ----------------------------------  (repeat 2 times)
b ----------------------------------
g --------------7-7-----------------
D ---2-2-2-2----7-7-----------------
A ---2-2-2-2----5-5-----------------
E ---0-0-0-0------------------------
            
Submit corrections


        Darwins Sang lessons Hard to play? Try these video lessons and learn fast Darwins Sang lessons
        
↑ Back to top | Tablatures and chords for acoustic guitar and electric guitar, ukulele, drums are parodies/interpretations of the original songs. You may use it for private study, scholarship, research or language learning purposes only