» » »

Roben Og Knud - Andesangen Tabs

Artists:  A B C D E F G H I J K L M N O P Q R S T U V W X Y Z # 

Andesangen Tabs

(ver. 2) Click to play this song!
Roben Og Knud
 Rating:
4/5 (4 votes)

 Andesangen lessons Tabs too difficult? Try these video lessons and learn fast
 
                Tuning: Standard

Det der er trist ved at vær' end and....
e ----------------------------------   (Repeat 2 times)
b ----------------------------------
g ----------------------------------
D ---5-5-5-5------7-7-7-7-----------
A ---5-5-5-5------7-7-7-7-----------
E ---3-3-3-3------5-5-5-5-----------

For er du klar over hvor trist det er....
e ----------------------------------
b ----------------------------------
g ----------------7-7-7-7-----------
D ---5-5-5-5------7-7-7-7-----------
A ---5-5-5-5------5-5-5-5-----------
E ---3-3-3-3------------------------

At svømme rundt i dårligt vejr.....
e ----------------------------------   
b ----------------------------------
g ---5-5-5-5------------------------
D ---5-5-5-5------5-5-5-5-----------
A ---3-3-3-3------5-5-5-5-----------
E ----------------3-3-3-3-----------

at svømme rundt i dårligt vejr.....
e ----------------------------------
b ----------------------------------
g ---7-7-7-7------5-5-5-5-----------
D ---7-7-7-7------5-5-5-5-----------
A ---5-5-5-5------3-3-3-3-----------
E ----------------------------------
            
Submit corrections


        Andesangen lessons Hard to play? Try these video lessons and learn fast Andesangen lessons
        
↑ Back to top | Tablatures and chords for acoustic guitar and electric guitar, ukulele, drums are parodies/interpretations of the original songs. You may use it for private study, scholarship, research or language learning purposes only