Home » R » Robbie Williams »

Robbie Williams - Supreme Tabs

Artists:  A B C D E F G H I J K L M N O P Q R S T U V W X Y Z # 

Supreme Tabs

(ver. 1) Click to play this song!
Robbie Williams
Verse part 1
Dm             Gm7               C                 Fmaj7
-3----3-3--3--3------------------1---1---1-----1-1-3------------
----------------3--3--2-3--3--3----0---0----0----------2--2-0-2-

Verse part 2                                                                              
Dm                        Gm7                 E       E7
-2--2--2-1-1--0--1-1---1--1--1-0-0---0---0--0-2-----------------
-----------------------------------3----------------------------

Verse part 2 v2                                                                             
Dm                     Gm7                  E         E7
-------------------------------------------------3--------------
-2-2-2--2--2-1-2--2-2--2-2-1--1-0-1---1-1-1-2-------------------
 
Chorus part 1                                                                             
         Dm             Bb           F           A
-3---5---6-------6--5---3---3-3---------------------------------
---------------------------------2-2-2---2-2-2-0-2--2-----------

Chorus part 2                                                                              
         Dm             Bb           F           A
-3---5---6---6---6--5---3------3--------------------------------
---------------------------------2-2-2---0-2----0-2---0-2----0-2

Chorus part 2 v2                                                                            
         Dm             Bb          F            A
-3---5---6---7---5--6---3------3--------------------------------
---------------------------------2-2-2---0-2----0-2---0-2----0-2

Chorus background                                                                          
        (Dm)           (Bb)        (F)          (A) 
-3---5---6-------6--5---------6--5--------6--5------------------
------------------------3------------------------2--------------
------------------------------------3---------------------------
                                                                              

[This is how to play the chorus chords]
 chord generator!]

  Dm     Bb    F     A
--5--  --6-- --1-- --5--
--6--  --6-- --1-- --5--
--7--  --7-- --2-- --6--
--7--  --8-- --3-- --7--
--5--  --8-- --3-- --7--
--5--  --6-- --1-- --5--                                                                              
Play these in this order:
Verse part 1
Verse part 2
Verse part 1
Verse part 2 v2
Chorus part 1
Chorus part 2

Verse part 1
Verse part 2 
Verse part 1
Verse part 2 v2
Chorus part 1
Chorus part 2 v2

(solo part) figure it out by yourself 
            (I really don't have time) =P

(rap part) play chorus chords or chorus background

(repeat part) Chorus background (repeat and fade out)
            
Submit corrections

↑ Back to top | Tablatures and chords for acoustic guitar and electric guitar, ukulele, drums are parodies/interpretations of the original songs. You may use it for private study, scholarship, research or language learning purposes only