Home » R » Rl Burnside »

Rl Burnside - Goin Down South Tabs

Artists:  A B C D E F G H I J K L M N O P Q R S T U V W X Y Z # 

Goin Down South Tabs

(ver. 3) Click to play this song!
Rl Burnside
Intro:

E|--------------------|
B|--------0--------0x-|
G|--------0--------0x-|
D|-----5b-------2-----|
A|--------------------|
E|-----------0--------|

Verse 1:

   "I'm goin' down south"
E|--------------------|
B|--------0--------0x-|
G|--------0--------0x-|   4X
D|-----5b-------2-----|
A|--------------------|
E|--0--------0--------|

Verse 2 (repeat the 5b only two times during vocals):

    "Where chilly winds don't blow"
E|--------------------------------------|
B|--------0--------0--------0--------0x-|
G|--------0--------0--------0--------0x-|
D|-----5b-------5b-------5b-------2-----|
A|--------------------------------------|
E|--0--------0--------0--------0--------|

Riff:

E|---------------------------------------|
B|---------------------------------------|
G|---------------------------------------|
D|----------0-----2----------0-----2-----|
A|-----0h2--------------0h2--------------|
E|--0----------0-----0----------0-----0--|

Bridge:

E|------------------------|
B|----------0----------0x-|
G|----------0----------0x-|   4X
D|----5b-5b-------2--2----|
A|------------------------|
E|--0----------0----------|

Outro:

E|--3\2--0---------------------------------------x--|
B|-------0--3--2--0------------------------------x--|
G|----------0--0--0--2--0h1----------------------x--|
D|-------------------0-------2p0--------0--1--2--x--|
A|--------------------------------2--2-----------x--|
E|-----------------------------------------------x--|            
Submit corrections

↑ Back to top | Tablatures and chords for acoustic guitar and electric guitar, ukulele, drums are parodies/interpretations of the original songs. You may use it for private study, scholarship, research or language learning purposes only