» » »

Riverside - We Got Used To Us Tabs

Artists:  A B C D E F G H I J K L M N O P Q R S T U V W X Y Z # 

We Got Used To Us Tabs

(ver. 2) Click to play this song!
Riverside
 Rating:
2.6/5 (24 votes)

 We Got Used To Us lessons Tabs too difficult? Try these video lessons and learn fast
 
                
Careful with the slides here, listen for the dynamics
e|------------------------------13h15--p13-------15--15----13----------|
B|-\8---(\6)----8\6---------------------------15--------------15-------|
G|-------------------7\5-----------------------------------------12----|
D|---------------------------------------------------------------------|
A|---------------------------------------------------------------------|
E|---------------------------------------------------------------------|

Rhythm ain't exact here...
e|------------------------------------------------------------------------------|
B|-8--8-8-8-8/10-10-10-10/11-11-11-11--11-11-11-11/13--13-13-13-13/15-15-15\----|
G|------------------------------------------------------------------------------|
D|-5--5-5-5-5/7--7--7--7-/8--8--8--8---8--8--8--8-/10--10-10-10-10/12-12-12\----|
A|------------------------------------------------------------------------------|
E|------------------------------------------------------------------------------|

e|-----------------------------------------|
B|-8h10----8-10-10b11-r10p8------8----\----|
G|---------------------------10------------|
D|-----------------------------------------|
A|-----------------------------------------|
E|-----------------------------------------|

Solo
e|------------------------------------------------------------------------------------------|
B|-16-15-13--13h15----------------------13------------13-15----13--------------11/13--11----|
G|------------------15--12----12-14-15------14---------------------12\9---------------------|
D|----------------------------------------------15-------------------------10---------------|
A|------------------------------------------------------------------------------------------|
E|------------------------------------------------------------------------------------------|

e|------------------------------------/13----13--/15------------------------|
B|-/15----15b16r15--------------------------------------13b14r13-11----\----|
G|------------------12--12/15--\12------------------------------------------|
D|--------------------------------------------------------------------------|
A|--------------------------------------------------------------------------|
E|--------------------------------------------------------------------------|            
Submit corrections


        We Got Used To Us lessons Hard to play? Try these video lessons and learn fast We Got Used To Us lessons
        
↑ Back to top | Tablatures and chords for acoustic guitar and electric guitar, ukulele, drums are parodies/interpretations of the original songs. You may use it for private study, scholarship, research or language learning purposes only