» » »

Riverside - Escalator Shrine Tabs

Artists:  A B C D E F G H I J K L M N O P Q R S T U V W X Y Z # 

Escalator Shrine Tabs

(ver. 2) Click to play this song!
Riverside
 Rating:
2.4/5 (29 votes)

 Escalator Shrine  lessons Tabs too difficult? Try these video lessons and learn fast
 
                Intro - So apparently the intro was a bass, haha. I had no idea and I tabbed it, then I saw 
them live and saw it was the bass, although, I think on some bits there is a guitar playing 
also (or could be an octave pedal, since apparently this song uses one)
e|--------------------------------------------------------------|
B|--------------------------------------------------------------|
G|--------------------------------------------------------------|
D|--------------------------------------------------------------|
A|-8h10--10/12------------12h13p12p10/8--(8)/10---------8-------|
E|--------------10-------------------------------10-12----10----|

e|--------------------------------------------------------------------------|
B|--------------------------------------------------------------------------|
G|--------------------------------------------------------------------------|
D|-10-10-10-8-7-8-7-------7--7-8-7---\--12-12-12-12-14-10-10-12-8-8-10-7----|
A|------------------8-10----------------------------------------------------|
E|--------------------------------------------------------------------------|

e|-------------------------------------------------------------------|
B|-------------------------------------------------------------------|
G|-------------------------------------------------------------------|
D|-12----10---------------8-10-12----10----12----10------------------|
A|----13----10-12-8-10-12---------13----13----13----13-12-8-10h12----|
E|-------------------------------------------------------------------|

e|---------------------------------------------------------|
B|---------------------------------------------------------|
G|---------------------------------------------------------|
D|-10------------------------5--/8-7-----------------------|
A|----10--7h8p7\5--7h8-5-7-8----------8-10--8-10--10/12----|
E|---------------------------------------------------------|

e|-----------------------------------------------------------|
B|-----------------------------------------------------------|
G|-----------------------------------------------------------|
D|---7-7-7----7h8---7h8p7----7-8----7-8/10-7h8---------------|
A|-10------10-------------10-----10------------8-10-10/12----|
E|-----------------------------------------------------------|

e|-------------------------------------------------------------------------------------|
B|-------------------------------------------------------------------------------------|
G|-----------------------------------------------------------------------------9-10----|
D|-12------------------8-10-12---------8-10-12---------8-10-12---------8-10-12---------|
A|----13-10-12-8-10-12---------8-10-12---------8-10-12---------8-10-12-----------------|
E|-------------------------------------------------------------------------------------|

e|------------------------------|
B|------------------------------|
G|------------------------------|
D|------------------------------|
A|-12--10--8-7-8-10-7-\-3--5----|
E|------------------------------|



Delay, volumen swell, slide-y.
e|-------------------------|
B|-------------------------|
G|-19----\17--------\12----|
D|-------------------------|
A|-------------------------|
E|-------------------------|

Play with a clean guitar, bar below with the same effects as the bar above
e|-----------------------------------------------------------------------------|
B|-----------------------------------------------------------------------------|
G|-5h7-5h7--7-5-0--------------------------5h7-5h7--7-5-0----------------------| x2
D|----------------3-0-3-5-5-------------------------------3-0-3-5-5------------|
A|--------------------------0-3-0-3/5-5-5---------------------------0-3/5-5----|
E|-----------------------------------------------------------------------------|
|
e|-17----\15--------\12----|
B|-------------------------|
G|-------------------------|
D|-------------------------|
A|-------------------------|
E|-------------------------|


e|---------------------------------------------------------------------------|
B|---------------------------------------------------------------------------|
G|-5h7-5h7--7-5-0--------------------------5h7-5h7--7-5-0--------------------|
D|----------------3-0-3-5-5-------------------------------3-0-3-5-5----------|
A|--------------------------0-3-0-3/5-5-5---------------------------0-3-5----|
E|---------------------------------------------------------------------------|

e|-------------------------------|
B|-------------------------------|
G|-------------------------------|
D|-------------------------------|
A|-5--5--5-5/7--7--7--7-7--7\----|
E|-3--3--3-3/5--5--5--5-5--5\----|

e|-----------------------------------------------------------------------------|
B|-----------------------------------------------------------------------------|
G|-5h7-5h7--7-5-0--------------------------5h7-5h7--7-5-0----------------------|
D|----------------3-0-3-5-5-------------------------------3-0-3-5-5------------|
A|--------------------------0-3-0-3/5-5-5---------------------------0-3/5-5----|
E|-----------------------------------------------------------------------------|

Solo 1
e|--------------------------------------------------------------------------|
B|--------------------------------------------------------------------------|
G|-12b14----(r12b14r12b14r12b14r12)----10h12p10----12p9h10p9----------------|
D|------------------------------------------------------------12p11p10p9----|
A|--------------------------------------------------------------------------|
E|--------------------------------------------------------------------------|

e|------------------------------|
B|------------------------------|
G|------------------------------|
D|-10--9p7h9p7h9h10--9p7h9-7----|
A|------------------------------|
E|------------------------------|


Play with just enough overdrive                              x2      1.
e|------------------------------------------------------------------||------------|
B|------------------------------------------------------------------||------------|
G|-5h7-5h7--7-5-0--------------------------5h7-5h7--7-5-0-----------||------------|
D|----------------3-0-3-5-5-------------------------------3-0-3-5-5-||------------|
A|--------------------------0-3-0-3/5-5-5---------------------------||-0-3/5-5----|
E|------------------------------------------------------------------||------------|

  2.
e|-------------------------------------|--------------------------------------------|
B|------------------5--------8b10r8----|-------------------------5--------8b10r8----|
G|----5---/7----5h7---5h7--------------|-/7----7p5---5-------5h7---5h7--------------|
D|-/7---7------------------------------|-----------7----7---------------------------|
A|-------------------------------------|--------------------------------------------|
E|-------------------------------------|--------------------------------------------|


Time to crank up overdrive!
e|-----------------------------------------------------------------------------|
B|-----------------------------------------------------------------------------|
G|-5h7-5h7--7-5-0--------------------------5h7-5h7--7-5-0----------------------| x2
D|----------------3-0-3-5-5-------------------------------3-0-3-5-5------------|
A|--------------------------0-3-0-3/5-5-5---------------------------0-3/5-5----|
E|-----------------------------------------------------------------------------|

e|-------------------------------|
B|-------------------------------|
G|-------------------------------|
D|-------------------------------|
A|-5--5--5-5/7--7--7--7-7--7\----|
E|-3--3--3-3/5--5--5--5-5--5\----|


Solo 2 - Add flanger, rhythm is the previous riff
e|------------------------------------------------------|
B|-13----/15----\10h12p10-------10----10h12p10----------|
G|------------------------12-12----------------12-10----|
D|------------------------------------------------------|
A|------------------------------------------------------|
E|------------------------------------------------------|

e|---------------------------------------------------------------|
B|---------------------------------------------------------------|
G|-12b14-r12p10----12-10-12-12b14-r12p10----12-10-12-12b14-10----|
D|--------------12-----------------------12----------------------|
A|---------------------------------------------------------------|
E|---------------------------------------------------------------|

e|-------------------------------|
B|-------------------------------|
G|-------------------------------|
D|-------------------------------|
A|-5--5--5-5/7--7--7--7-7--7\----|
E|-3--3--3-3/5--5--5--5-5--5\----|




-------------------------------Second (heavy) half of the song-------------------------------
Rhythm here is not tabbed exactly, remember to listen closely to the song!

Enter after the bass                              x4
e|------------------------------------------------|---|
B|------------------------------------------------|---|
G|------------------------------------------------|---|
D|------------------------------------------------|-5-|
A|-5--5-5-0-3-5--5-5-0-3-5--5-5-0-3-5--5---0-3-0--|-5-|
E|------------------------------------------------|-3-|

e|--------------------------------------------------------------------|
B|-----------------------6-6/8-8-8-8-8--------------------------------|
G|-----------------------5-5/7-7-7-7-7--------------------------------|
D|-7-7---5/7-7---5/7-7---3-3/5-5-5-5-5-7-7---5/7-7-5-2----------------|
A|-5-5-x-3/5-5-x-3/5-5-x---------------5-5-x-3/5-5-3-0-5-5-5-5-5-5----|
E|-----------------------------------------------------3-3-3-3-3-3----|

First time palm mute the E string
e|---------------------------------------------------------------------|
B|---------------------------------------------------------------------|
G|---------------------------------------------------------------------|
D|------------3-3-3-------------7-7-7-------------3-3-3-9-9-9-9-9-9----| x2
A|-2--2-2-2-2-1-1-1--2--2-2-2-2-5-5-5--2--2-2-2-2-1-1-1-7-7-7-7-7-7----|
E|-0--0-0-0-0--------0--0-0-0-0--------0--0-0-0-0----------------------|

Enter after the bass
             x4
e|-------------|------------|
B|-------------|------------|
G|-------------|------------|
D|-------------|-9-9-9-9----|
A|-------------|-7-7-7-7----|
E|-6-5-3-0-3-0-|------------|

e|-----------------------------------------------------------|
B|-----------------------------------------------------------|
G|-----------------------------------------------------------|
D|------------3-3-3-------------7-7-7-------------3-3-3------|
A|-2--2-2-2-2-1-1-1--2--2-2-2-2-5-5-5--2--2-2-2-2-1-1-1-2----|
E|-0--0-0-0-0--------0--0-0-0-0--------0--0-0-0-0-------0----|

e|---------------------------------------------------------------------|
B|---------------------------------------------------------------------|
G|---------------------------------------------------------------------|
D|------------3-3-3-------------7-7-7-------------3-3-3-9-9-9-9-9-9----|
A|-2--2-2-2-2-1-1-1--2--2-2-2-2-5-5-5--2--2-2-2-2-1-1-1-7-7-7-7-7-7----|
E|-0--0-0-0-0--------0--0-0-0-0--------0--0-0-0-0----------------------|

e|--------------------------------------------------------------------------------|
B|--------------------------------------------------------------------------------|
G|--------------------------------------------------------------------------------|
D|------------7-7-7-------------3-3-3-------------7-7-7-9-9-9-7-7-7-9-9-9-7-7-7---|
A|-2--2-2-2-2-5-5-5--2--2-2-2-2-1-1-1--2--2-2-2-2-5-5-5-7-7-7-5-5-5-7-7-7-5-5-5---|
E|-0--0-0-0-0--------0--0-0-0-0--------0--0-0-0-0---------------------------------|

e|--------------------------------------------------------|
B|--------------------------------------------------------|
G|--------------------------------------------------------|
D|------------7-7-7-------------3-3-3-------------7-7-7---|
A|-2--2-2-2-2-5-5-5--2--2-2-2-2-1-1-1--2--2-2-2-2-5-5-5---|
E|-0--0-0-0-0--------0--0-0-0-0--------0--0-0-0-0---------|

Pick the notes in end multiple times
e|------------------------------------------------------|------------|
B|------------------------------------------------------|------------|
G|-9-7---7----------------------------------------------|------------|
D|-----9---9-7-9-7----7---------------------------------|------------|
A|-----------------10---10-7-10-7----7------------------|------------|
E|--------------------------------10---10-7-10-7-5-7-5-3|-0/3/5/7----|

                   x2  1.         2.
e|------------------||----------|--------------------|
B|------------------||----------|--------------------|
G|------------------||----------|--------------------|
D|------------------||----------|--------------------|
A|--------------/5--||-2---3--2-|-2---3--2-5--5-8----|
E|-0---/6---0-------||-0---1--0-|-0---1--0-3--3-6----|

                   x2  1.         2.
e|------------------||----------|-------------------------|
B|------------------||----------|-------------------------|
G|------------------||----------|-------------------------|
D|------------------||----------|-------------------------|
A|-----/5-----------||-2---3--2-|-2---3--2-5--5-8----2----|
E|-0--------0---/6--||-0---1--0-|-0---1--0-3--3-6----0----|


Clean with flanger
e|-----------------------------------------------------------------|
B|-----------------------------------10b12----15-------------------|
G|-11b12----11b12r11-9-11b12r11-9-------------------14b15r14-12----|
D|-----------------------------------------------------------------|
A|-----------------------------------------------------------------|
E|-----------------------------------------------------------------|


Bit of overdrive and delay on this
e|-7-----------7-----------7-----------7--------------|
B|---5-8---5-8---5-8---5-8---5-8---5-8---5-8---5-8----|
G|-------7-----------7-----------7-----------7--------|
D|----------------------------------------------------|
A|----------------------------------------------------|
E|----------------------------------------------------|

e|-6-----------6-----------6-----------6--------------|
B|---5-8---5-8---5-8---5-8---5-8---5-8---5-8---5-8----|
G|-------7-----------7-----------7-----------7--------|
D|----------------------------------------------------| x2 both bars
A|----------------------------------------------------|
E|----------------------------------------------------|

e|-8-----------8-----------8-----------8--------------|
B|---6-9---6-9---6-9---6-9---6-9---6-9---6-9---6-9----|
G|-------8-----------8-----------8-----------8--------|
D|----------------------------------------------------|
A|----------------------------------------------------|
E|----------------------------------------------------|

e|-7-----------7-----------7-----------7--------------|
B|---6-9---6-9---6-9---6-9---6-9---6-9---6-9---6-9----|
G|-------8-----------8-----------8-----------8--------|
D|----------------------------------------------------| x2 both bars
A|----------------------------------------------------|
E|----------------------------------------------------|

e|-------------------|
B|-9----8b9r8b9r8----|
G|-------------------|
D|-------------------|
A|-------------------|
E|-------------------|


e|-----------------------------------------------------------|
B|----1----------6-------1-------/9----(9)-8-----------------|
G|-3----------4-------3--------------------------------------|
D|-------3------------------3----------------10-8---(b10)----|
A|-----------------------------------------------------------|
E|-----------------------------------------------------------|


e|-8-----------8-----------8-----------8--------------|
B|---6-9---6-9---6-9---6-9---6-9---6-9---6-9---6-9----|
G|-------8-----------8-----------8-----------8--------|
D|----------------------------------------------------|
A|----------------------------------------------------|
E|----------------------------------------------------|

e|-7-----------7-----------7-----------7--------------|
B|---6-9---6-9---6-9---6-9---6-9---6-9---6-9---6-9----|
G|-------8-----------8-----------8-----------8--------|
D|----------------------------------------------------| x4
A|----------------------------------------------------|
E|----------------------------------------------------|

Delay on this
e|----------------------------|
B|-11----13----13h14p13p11----|
G|----------------------------|
D|----------------------------| x2
A|----------------------------|
E|----------------------------|

e|----------------------------|
B|----------------------------|
G|-10----12----12h13p12p10----|
D|----------------------------| x2, then repeat both twice again
A|----------------------------|
E|----------------------------|

Turn on an octave down pedal for this
e|--------------------------------------------------------|
B|--------------------------------------------------------|
G|--------------------------------------------------------|
D|----11-----10--13--------10h11-----11-----10--13--------| x2
A|-13-----13---------11-13--------13-----13---------11----|
E|--------------------------------------------------------|

Then turn in off (or be badass and leave it on)
e|-----------------------------------------|
B|-----------------------------------------|
G|-----------------------------------------|
D|-----------------------------------------| x18
A|---4----3--6------3h4----4----3--6-------|
E|-6----6-------4-6------6----6-------4----|
            
Submit corrections


        Escalator Shrine  lessons Hard to play? Try these video lessons and learn fast Escalator Shrine  lessons
        
↑ Back to top | Tablatures and chords for acoustic guitar and electric guitar, ukulele, drums are parodies/interpretations of the original songs. You may use it for private study, scholarship, research or language learning purposes only