» » »

Rivermaya - Maskara Tabs

Artists:  A B C D E F G H I J K L M N O P Q R S T U V W X Y Z # 

Maskara Tabs

(ver. 3) Click to play this song!
Rivermaya
 Rating:
4/5 (4 votes)

 Maskara lessons Tabs too difficult? Try these video lessons and learn fast
 
                For any comments and Suggestion:


        This is the 2nd Single  of of Rivermaya from their new album
                              "BUHAY"

Tuning: Standard


HINT:Sabayan nyo ung song para ma ka sabay din kyo...medyo mahirap
     lang ito sabaya pero ok na ok. rate ko is 8.9/10
     PLEASE RATE MY TAB! I hope this is correct.


Intro:Drums and Beat by Mark Escueta
and the lead!!!

e------------------------|----------------------------------|
b------------------------|----------------------------------|
g-----------7----10------|----------7---10-hold--10h9h8h7---|
D----7--8----------------|----7--8--------------------------|
A------------------------|----------------------------------|
E------------------------|----------------------------------|

tapos.... biglang pasok....

e-------------------------------------------------------------------|
b-------------------------------------------------------------------|
g-------------------------------------------------------------------|
D-44444h5—--3h44444h5-----2h33333h2-----2h33333h2-------------------|
A--------5------------5-------------5-------------5-----------------|
E-------------------------------------------------------------------|

e--------------------------------------------------------------------|
b--------------------------------------------------------------------|
g--------------------------------------------------------------------|
D-3h44444h5—--3h44444h5-----2h33333h2-----333333h2-------------------|
A-----------5------------5------------5----------------5-------------|
E--------------------------------------------------------------------|

Verse 1:

Kwento ko sa’yo ngayon..Maupo ka't wag kang lilingon..
e----------------------------------|
b----------------------------------|
g----------------------------------|
D---44444h5----3h44444h5-----------|
A-----------5------------5---------|
E----------------------------------|


Wari ba’y parang pabulang..Mahigit sa sangdaang taon...
e------------------------------------|
b------------------------------------|
g------------------------------------|
D---2h33333h2----2h33333h2-----------|
A------------5-------------5---------|
E------------------------------------|

Simple lang hangarin ko...Sana'y wag mapunta sayo..
e----------------------------------|
b----------------------------------|
g----------------------------------|
D---44444h5----3h44444h5-----------|
A-----------5------------5---------|
E----------------------------------|

Ako nalang ang sasalo....Dahil sanay na ko rito..
e------------------------------------|
b------------------------------------|
g------------------------------------|
D---2h33333h2----2h33333h2-----------|
A------------5-------------5----7----|
E------------------------------------|


Chorus:
Guitar(clean)
Ngayon..........Mag-ingat sa tao na may maskara..... THEN......... Mag ingat sa tao na 
maskara ah ah....
e------------------------------------------|----------------------|--------------------------------|
b------------------------------------------|----------------------|--------------------------------|
g--777777777777----------------------------|-66666---7--999999999-|-----7777777------------------7-|
D--777777777777---------44444444-5555555---|-66666---7--999999999-|-----7777777--55555555--------7-|
A--555555555555---------44444444-5555555---|-44444---5--777777777-|-----5555555--55555555--------5-|
E-----------------------22222222-3333333---|----------------------|--------------33333333----------|

Then Lead >>
e------------------------|
b------------------------|
g-----------7----10------|
D----7--8----------------|
A------------------------|
E------------------------|

Verse:
Si Mr. Personaliteey...Makikita mo gabi-gabeyyy
e----------------------------------|
b----------------------------------|
g----------------------------------|
D---44444h5----3h44444h5-----------|
A-----------5------------5---------|
E----------------------------------|

Panay text kung anong gimik mo...(Bakit biglang close na kayo)
e------------------------------------|
b------------------------------------|
g------------------------------------|
D---2h33333h2----2h33333h2-----------|
A------------5-------------5---------|
E------------------------------------|


Kunyari siya ay bespren mo...Dati'y walang paki sayo
e----------------------------------|
b----------------------------------|
g----------------------------------|
D---44444h5----3h44444h5-----------|
A-----------5------------5---------|
E----------------------------------|


Panay ngiti, parang aso...Biglang tinubuan pa ng puso?
e------------------------------------|
b------------------------------------|
g------------------------------------|
D---2h33333h2----2h33333h2-----------|
A------------5-------------5----7----|
E------------------------------------|

Teka wag kang mag-alala...May isang senyales pa...
e----------------------------------|
b----------------------------------|
g----------------------------------|
D---44444h5----3h44444h5-----------|
A-----------5------------5---------|
E----------------------------------|


Buksan ang yong mga mata...Hindi mahirap makita
e------------------------------------|
b------------------------------------|
g------------------------------------|
D---2h33333h2----2h33333h2-----------|
A------------5-------------5---------|
E------------------------------------|

Baka nasa harapan mo na...Nagmimistulang buwaya
e----------------------------------|
b----------------------------------|
g----------------------------------|
D---44444h5----3h44444h5-----------|
A-----------5------------5---------|
E----------------------------------|


Kinakain lang ay salita...Lumulunok ng kaluluwa...
e------------------------------------|
b------------------------------------|
g------------------------------------|
D---2h33333h2----2h33333h2-----------|
A------------5-------------5----7----|
E------------------------------------|

Chorus:
Ngayon.......Mag-ingat sa tao na may maskara..... THEN......... Mag ingat sa tao na may maskara
e------------------------------------------|----------------------|--------------------------|
b------------------------------------------|----------------------|--------------------------|
g--777777777777----------------------------|-66666---7--999999999-|-----7777777--------------|
D--777777777777---------44444444-5555555---|-66666---7--999999999-|-----7777777--55555555----|
A--555555555555---------44444444-5555555---|-44444---5--777777777-|-----5555555--55555555----|
E-----------------------22222222-3333333---|----------------------|--------------33333333----|

Dahil...Ngayon....Mag-ingat sa tao na may maskara..... THEN......Mag ingat sa tao na may 
ah ah....
e--------------------------------------|----------------------------|--------------------------|
b--------------------------------------|----------------------------|--------------------------|
g--777777777777------------------------|-99999---11-14141414-111111-|--7777777--------------7--|
D--777777777777-----44444444-5555555---|-xxxxx---x-xxxxxxxx-xxxxxx--|--7777777--55555555----7--|
A--555555555555-----44444444-5555555---|-77777---9--12121212-999999-|--5555555--55555555----5--|
E-------------------22222222-3333333---|----------------------------|-----------33333333-------|


BRIDGE:
(Drums Lang d2)
Maskara.....Ingat Ka....
Maskara.....Ingat Ka....
Maskara.....Ingat Ka....
Maskara.....Ingat Ka....

Last Chorus (mataas to kumpara sa chorus na una)


Ngayon.....Mag-ingat sa tao na may maskara..... THEN......... Mag ingat sa tao na may maskara
e----------------------------------------|----------------------|---------------|
b----------------------------------------|----------------------|---------------|
g--999999999999--------------------------|-88888---9--111111111-|-----9999999---|
D--999999999999----7777777777777---------|-xxxxx---x--xxxxxxxxx-|-----9999999---|
A--777777777777----7777777777777---------|-66666---7--999999999-|-----7777777---|
E------------------5555555555555---------|----------------------|---------------|

Dahil...Ngayon....Mag-ingat sa tao na may maskara..... THEN......Mag ingat sa tao na may 
ah ah....
e------------------------------------|---------------------|---------------|
b------------------------------------|---------------------|---------------|
g--999999999999----------------------|-111111---13---16-13-|-----9-----9---|
D--999999999999----7777777777777-----|-xxxxxx---xx---xx-xx-|-----9-----9---|
A--777777777777----7777777777777-----|-999999---11---14-11-|-----7-----7---|
E------------------5555555555555-----|---------------------|---------------|


then>>
e------------------------|----------------------------------|
b------------------------|----------------------------------|
g-----------7----10------|----------7---10-hold--10h9h8h7---|
D----7--8----------------|----7--8--------------------------|
A------------------------|----------------------------------|
E------------------------|----------------------------------|

e------------------------|
b------------------------|
g-----------7----10------|
D----7--8----------------|
A------------------------|
E------------------------|

e------------------------|
b------------------------|
g-----------7----10------|
D----7--8----------------|
A------------------------|
E------------------------|

       END!
            
Submit corrections


        Maskara lessons Hard to play? Try these video lessons and learn fast Maskara lessons
        
↑ Back to top | Tablatures and chords for acoustic guitar and electric guitar, ukulele, drums are parodies/interpretations of the original songs. You may use it for private study, scholarship, research or language learning purposes only